Nelly - Over And Over Chords & Tabs

 

Over And Over Chords & Tabs

Nelly Chords & Tabs

Version: 5 Type: Tab

Over And Over Tab

Title:     Over and Over
Artist:    Nelly
Tabbed by: Gilbert C. Bumanlag

Tuning: Standard

This is absolutely correct


Intro/Verse:

E-----------------|
B-----------------|
G-----------------|
D------4h5-5p4----|  2x
A----5---------5--|
E--3--------------|


E-----------------|
B-----------------|
G-----------------|
D------5p4---4----|  2x
A----5-----5---5--|
E--0--------------|


Then another guitar plays this:
E--------------------|
B--10b12---10-10p8---|
G--------------------|
D--------------------|
A--------------------|
E--------------------|

Over and over again, over and over again...
E-----------------|
B--10p8-10p8---8--|
G-----------------|
D-----------------|
A-----------------|
E-----------------|


Refrain:
[ Tab from: http://www.guitartabs.cc/tabs/n/nelly/over_and_over_tab_ver_5.html ]
E------------------|
B------------------|
G------------------|
D------------------|
A------5-------3---|
E--3-------0-------|


Chorus:

Guitar 1

E----------10---------------------------------------------|
B-------8-------------------------------------------------|
G--7h9---------10b12r10---10p8-10p8-10---10b12--10-10/12--|
D---------------------------------------------------------|
A---------------------------------------------------------|
E---------------------------------------------------------|


Guitar 2

E-----------------|
B-----------------|
G-----------------|
D------4h5-5p4----|  2x
A----5---------5--|
E--3--------------|


E-----------------|
B-----------------|
G-----------------|
D------5p4---4----|  2x
A----5-----5---5--|
E--0--------------|


Just know the timing of this ghost note
‘coz it is played over & over again:
E-------
B--<7>--
G-------|
D-------|
A-------|
E-------|

That’s all !!!