Nekromantix - Nekrofelia Chords & Tabs

 

Nekrofelia Chords & Tabs

Nekromantix Chords & Tabs

Version: 2 Type: Tab 0 ratings
1 star 2 stars 3 stars 4 stars 5 stars
comments

Nekrofelia Tab

   
-------------------------------------------------------------------------------
			     NEKROFELIA - nekromantix
-------------------------------------------------------------------------------
Tabbed by: Diego Revollo
Email: tiepjo@hotmail.com

Tuning: standar (e,b,g,d,a,e)

Intro:
    a 		  F		  a	        F
e|--x-------------x---------------x-------------x------------------------------|
B|--x-------------x---------------x-------------x------------------------------|
G|--x-------------10--------------x-------------10-----------------------------|
D|--7-------------10---2-3-2-3----7-------------10---2-3-5-5--3-2--------------|
A|--7---2-3-2-----8------------0--7---2-3-2-----8----------------3-5/6\5-3-2---|
E|--5---------1---x---------------5---------1---x----------------------------3-|

	   F		a	     a		  a
e|---------x------------x------------x------------x----------------------------|
B|---------x------------x------------x------------x----------------------------|
G|---------10-----------x------------x------------x----------------------------|
D|---------10-----------7------------7------------7----------------------------|
A|---------8----2-3-2---7-------2-3--7-------2-3--7----------------------------|
E|-3-2-1---x------------5---3-1------5---3-1------5----------------------------|
[ Tab from: http://www.guitartabs.cc/tabs/n/nekromantix/nekrofelia_tab_ver_2.html ]
Verse: x2
	       F	       a	     F		  C    g
e|-------------x---------------x-------------x------------x----x--------------|
B|-------------x---------------x-------------x------------x----x--------------|
G|-------------10--------------x-------------10-----------5----x--------------|
D|-------------10---2-3-2-3----7-------------10---2-3-5---5----5--play each---|
A|---2-3-2-----8------------0--7---2-3-2-----8------------3----5--note 8 times|
E|---------1---x---------------5---------1---x------------x----3--------------|

                F	      a		    a	         a
e|-x---x---x----x-------------x-------------x------------x--------------------|
B|-x---x---x----x-------------x-------------x------------x--------------------|
G|-x---x---x----10------------x-------------x------------x--------------------|
D|-5---4---3----10------------7-------------7------------7--------------------|
A|-5---4---3----8----2-3-2----7-------2-3---7-------2-3--7--------------------|
E|-3---2---1----x-------------5---3-1-------5---3-1------5--------------------|

Bridge:

e|----------------------------------------------------------------------------|
B|----------6---5-6-5---10-----------6----5-6-8-8-6-5-------------------------|
G|--4-5-4--------------------4-5-4--------------------5-7/8\7-5-4-------------|
D|--------3-----------7------------3------------------------------5-----------|
A|----------------------------------------------------------------------------|
E|----------------------------------------------------------------------------|

					       a
e|---------------------------------------------x------------------------------|
B|--------6------------------------------------x------------------------------|
G|------------4-5-4---------4-5----------4-5---x------------------------------|
D|--5-4-3-----------7---5-3-----7----5-3-------7------------------------------|
A|---------------------------------------------7------------------------------|
E|---------------------------------------------5------------------------------|

Verse


| /  slide up
| \  slide down
| h  hammer-on
| p  pull-off
| ~  vibrato
| +  harmonic
| x  Mute note
===============================================================================
Comments