Nekromantix - Nekrofelia Chords & Tabs

 

Nekrofelia Chords & Tabs

Nekromantix Chords & Tabs

Version: 1 Type: Bass Tab

Nekrofelia Bass Tab

   
Nekromantix - Nekrofelia
Album: Brought Back To Life
Bassist: Kim Nekroman
Tuning (E,A,D,G)
Tabbed by Metallicaslayer22

Intro
G-------------------------------------------------------------------------|
D-------------------------------------------------------------------------|
A-0-0-0-0-0-0-0-0-----------------------0-0-0-0-0-0-0-0-------------------|
E-----------------3-1-1-1-1-1-1-1-1-1-3-----------------3-1-1-1-1-1-1-1-1-|

G-------------------------------------------------|
D-------------------------------------------------|
A-3-3-3-3-3-3-3---------------------3---3---3---3-|
E---------------3-3-3-3-3-3-3-2-1-1---1---1---1---|

G---------------------------------|
D---------------0---------------0-|
A-0-0-0-0-----3---0-0-0-0-----3---|
E---------3-1-------------3-1-----|

Verse
G-------------------------------------------------------------------------|
D-------------------------------------------------------------------------|
A-0-0-0-0-0-0-0-0-----------------------0-0-0-0-0-0-0-0-------------------|
E-----------------3-1-1-1-1-1-1-1-1-1-3-----------------3-1-1-1-1-1-1-1-1-|

Chorus
G-----------------------------------------------|
D-----------------------------------------------|
A-3-3-3-3-3-3-3---------------------3-----------|
E---------------3-3-3-3-3-3-3-2-1-1---1-1-1-1-1-|

G---------------------------------|
D---------------0---------------0-|
A-0-0-0-0-----3---0-0-0-0-----3---|
E---------3-1-------------3-1-----|

Verse
G-------------------------------------------------------------------------|
D-------------------------------------------------------------------------|
A-0-0-0-0-0-0-0-0-----------------------0-0-0-0-0-0-0-0-------------------|
E-----------------3-1-1-1-1-1-1-1-1-1-3-----------------3-1-1-1-1-1-1-1-1-|
[ Tab from: http://www.guitartabs.cc/tabs/n/nekromantix/nekrofelia_btab.html ]
Chorus
G-------------------------------------------------|
D-------------------------------------------------|
A-3-3-3-3-3-3-3-----------------------------------|
E---------------3-3-3-3-3-3-3-2-1-1-1-1-1-1-1-1-3-|

G---------------------------------|
D---------------0---------------0-|
A-0-0-0-0-----3---0-0-0-0-----3---|
E---------3-1-------------3-1-----|

Solo
G-----------------------------------------------------------------|
D-----0-2-----0-2---------------------0-2-----0-2-----------------|
A---3-------3-------3-2-0---3-2-0---3-------3-------3-2-0---3-2-0-|
E-5-------5-------1-------1-------5-------5-------1-------1-------|

G-------------------------------|
D---2-3-4---2-3-4-------0-1-0---|
A-3-------3---------2-4-------4-|
E-----------------3-------------|

Chorus
G---------------------|
D---------------------|
A---------------------|
E-2-1-1-1-1-1-1-1-1-3-|

G---------------------------------|
D---------------0---------------0-|
A-0-0-0-0-----3---0-0-0-0-----3---|
E---------3-1-------------3-1-----|

Verse
G-------------------------------------------------------------------------|
D-------------------------------------------------------------------------|
A-0-0-0-0-0-0-0-0-----------------------0-0-0-0-0-0-0-0-------------------|
E-----------------3-1-1-1-1-1-1-1-1-1-3-----------------3-1-1-1-1-1-1-1-1-|

Chorus
G-------------------------------------------------|
D-------------------------------------------------|
A-3-3-3-3-3-3-3-----------------------------------|
E---------------3-3-3-3-3-3-3-2-1-1-1-1-1-1-1-1-3-|

G---------------------------------|
D---------------0---------------0-|
A-0-0-0-0-----3---0-0-0-0-----3---|
E---------3-1-------------3-1-----|

Outro
G-------------------|
D---------------0---|
A-0-0-0-0-----3---0-|
E---------3-1-------|