Nekromantix - Last Night I Saved An Angel Chords & Tabs

 

Last Night I Saved An Angel Chords & Tabs

Nekromantix Chords & Tabs

Version: 1 Type: Tab 0 ratings
1 star 2 stars 3 stars 4 stars 5 stars
comments

Last Night I Saved An Angel Tab

Song - Last Night I Saved an Angel
Artist - Nekromantix
Album - Demons are a Girls Best Friend
Tuning - Standard (EADGBe)
Tabbed By George Booth

Intro
e |--1----|--3----|--0----|--0--0----|
B |--3----|--3----|--1----|--3--1----|
G |--2----|--3----|--2----|--2--2----|
D |--0----|--5----|--2----|----------|
A |-------|-------|-------|----------|
E |-------|-------|-------|----------|

Verse
e |-1--------1----------|--3--------------3----------|--0----|--0--0---||
B |-3-----------3-------|--3-----------------3-------|--1----|--3--1---||
G |o2--------------2----|--3--------------------3----|--2----|--2--2--o||
D |o0-------------------|--5-------------------------|--2----|--------o||
A |---------------------|----------------------------|-------|---------||
E |---------------------|----------------------------|-------|---------||

Bridge
e |----------------------------------------|
B |----------------------------------------|
G |--3--3-----4--4-----5--5-----6--6-------|
D |----------------------------------------|
A |----------------------------------------|
E |----------------------------------------|
[ Tab from: http://www.guitartabs.cc/tabs/n/nekromantix/last_night_i_saved_an_angel_tab.html ]
Chorus
e |---------------------------|----------------------------|
B |-------7-----------7-------|----------------------------|
G |ox--x--7-----x--x--7-------|--------4-----------4-------|
D |ox--x--7-----x--x--7-------|--x--x--5-----x--x--5-------|
A |-x--x--5-----x--x--5-------|--x--x--5-----x--x--5-------|
E |---------------------------|--x--x--3-----x--x--3-------|

e |----------------------------|----------------------------------------|
B |--------2-----------2-------|----------------------------------------|
G |--x--x--2-----x--x--2-------|--3--3-----4--4-----5--5-----6--6-------|
D |--x--x--2-----x--x--2-------|----------------------------------------|
A |--x--x--0-----x--x--0-------|----------------------------------------|
E |----------------------------|----------------------------------------|

e |---------------------------|----------------------------|
B |-------7-----------7-------|----------------------------|
G |-x--x--7-----x--x--7-------|--------4-----------4-------|
D |-x--x--7-----x--x--7-------|--x--x--5-----x--x--5-------|
A |-x--x--5-----x--x--5-------|--x--x--5-----x--x--5-------|
E |---------------------------|--x--x--3-----x--x--3-------|

e |----------------------------|----------------------------------------|
B |--------2-----------2-------|----------------------------------------|
G |--x--x--2-----x--x--2-------|--7--7-----5--5-----4--4-----3--3------o|
D |--x--x--2-----x--x--2-------|---------------------------------------o|
A |--x--x--0-----x--x--0-------|----------------------------------------|
E |----------------------------|----------------------------------------|

I don't know the solos sorry :(

End on a D-Minor Chord and add vibrato
Comments