Neil Zaza - Im Alright Chords & Tabs

 

Im Alright Chords & Tabs

Neil Zaza Chords & Tabs

Version: 1 Type: Tab 0 ratings
1 star 2 stars 3 stars 4 stars 5 stars
comments

Im Alright Tab

----------------11-12----------------------------------|
------9------12----------------------------------------|
----------11-------------------------------------------|
----9---9----------------------------------------------|
--7----------------------------------------------------|
-------------------------------------------------------|

[ Tab from: http://www.guitartabs.cc/tabs/n/neil_zaza/im_alright_tab.html ]
-----------19-17-16-h-17-p-16--------------------------|
--------17--------------------19-17--------------------|
-------------------------------------------------------|
-------------------------------------------------------|
--16-18------------------------------------------------|
-------------------------------------------------------|


--------------------11-12-------12-11------------------|
--------12-------14-------------------12---------------|
-----------------------------13----------11------------|
-----14-------------------11---------------------------|
--11-------12-14---------------------------------------|
-------------------------------------------------------|


This is all I have right now, but I should have more soon.
Comments