Neil Young - Ohio Chords & Tabs

 

Ohio Chords & Tabs

Neil Young Chords & Tabs

Version: 2 Type: Tab 0 ratings
1 star 2 stars 3 stars 4 stars 5 stars
comments

Ohio Tab

E--------------------------/----------------------/--------------------------|
B------------3-------------/----------3-----------/-----3--3--3--------------|
G------0h2-2---0---0-------/----0h2-2---0---0-----/---0h2--2--0-----0--------|
D-----0----------3---------/---0----------3-------/--0-----------3-----------|
A--------------------3-----/------------------3---/--------------------3-----|
E--------------------------/----------------------/--------------------------|
[ Tab from: http://www.guitartabs.cc/tabs/n/neil_young/ohio_tab_ver_2.html ]
                                              chorus
E--------------------------/--3-------------1-----/--x----------------x------|
B-----3--3--3--------------/--3-------------1-----/--3----------------8------|
G---0h2--2--0-----0--------/--3-------------0-----/--3----------------8------|
D--0-----------3-----------/--3-------------2-----/--3----------------8------|
A--------------------3-----/--5-------------3-----/--5----------------10-----|
E--------------------------/--3-------------x-----/--5----------------10-----|

E--3-----------------x--x-/
B--3-----------------8--10/      repeat intro
G--3-----------------8--10/
D--3-----------------8--10/
A--5-----------------10-12/
E--3-----------------10-12/

         repeat chorus then repeat intro
Comments