Neil Young - Im The Ocean Chords & Tabs

 

Im The Ocean Chords & Tabs

Neil Young Chords & Tabs

Version: 2 Type: Tab 0 ratings
1 star 2 stars 3 stars 4 stars 5 stars
comments

Im The Ocean Tab

   
--------------------------------------------------------------------------
			     I'm The Ocean - Neil Young
--------------------------------------------------------------------------

Tabbed by: GibsonSg99
Email:Specailized_p2@hotmail.com

Tuning: Standard

The Intro
[ Tab from: http://www.guitartabs.cc/tabs/n/neil_young/im_the_ocean_tab_ver_2.html ]
  Em                G      D   Dsus  C                D        C  B  A
e|--------0---3-----3--3---2---3-----0--0---------0-----------------------|
B|--------0---3-----3--3---3---3-----1--1---3--1--0---3--3----------------|
G|----1-------------0--0---2---2-----0--0---0--0--0---2-----2-------------|
D|----2-------------0--0---0---0-----2--2---2--2------0--------2----------|
A|-2--2-------------2--3-------------3--3----------------------3--2--0----|
E|-0--0-------------3--3--------------------------------------------------|


Em      Dsus     C     Dsus           Em

I am an accident I was driving way to fast


Keep using those chords till he stops singing then:


Em7                   G               Cadd9           D            
E-----------3---0---------------------------------------------------------|
B-----------3---0----------------0---------------3-----3--3---------------|
G-------------------------------------------0----------2-----2--0---------|
D----------------------------0-----------2----2--------0-----------2------|
A------2-----------------2----2-------3----------------------------3--2--0|
E---0-----------------3---------------------------------------------------|
Comments