Neil Young - Heart Of Gold Chords & Tabs

 

Heart Of Gold Chords & Tabs

Neil Young Chords & Tabs

Version: 5 Type: Tab 0 ratings
1 star 2 stars 3 stars 4 stars 5 stars
comments

Heart Of Gold Tab

   
Heart Of Gold
Neil Young

Standard Tuning : E A D G B E
Original Tone : G Major / E minor

Chords :
    Em7            Em              G              D              C             Am
0-2-2-0-1-0    0-2-2-0-0-0    3-2-0-0-3-3    X-X-0-2-3-2    X-3-2-0-1-0    X-0-2-2-1-0


    Em7                       D         Em
e|-------------------------|--2-------2-----------------|
B|-------1--1--1--1--1--1--|--3-------3-----------------|
G|-------0--0--0--0--0--0--|--2-------2-0---------------|
D|-------2--2--2--2--2--2--|--0-------0-2--------0-2----|
A|-------2--2--2--2--2--2--|------------2----0h2--------|
E|--0----------------------|------------0------------0--|

    Em7                       D         Em
e|-------------------------|--2-------2-----------------|
B|-------1--1--1--1--1--1--|--3-------3-----------------|
G|-------0--0--0--0--0--0--|--2-------2-0---------------|
D|-------2--2--2--2--2--2--|--0-------0-2--------0-2----|
A|-------2--2--2--2--2--2--|------------2----0h2--------|
E|--0----------------------|------------0------------0--|

    Em          C              D           G           
e|------------0-----------0-|--------2---2-------3---3-|
B|--------0---0-------1---1-|--------3---3-------3---3-|
G|--------0---0-------0---0-|--2--2--2---2-------0---0-|
D|-----2--2--------2--2-----|--0--0--0--------0--0-----|
A|--2--2--2-----3--3--3-----|--x--x--------2--2--2-----|
E|--0--0--------x--x--------|--------------3--3--------|

    Em          C              D           G           
e|------------0-----------0-|--------2---2-------3---3-|
B|--------0---0-------1---1-|--------3---3-------3---3-|
G|--------0---0-------0---0-|--2--2--2---2-------0---0-|
D|-----2--2--------2--2-----|--0--0--0--------0--0-----|
A|--2--2--2-----3--3--3-----|--x--x--------2--2--2-----|
E|--0--0--------x--x--------|--------------3--3--------|

    Em          C              D           G           
e|------------0-----------0-|--------2---2-------3---3-|
B|--------0---0-------1---1-|--------3---3-------3---3-|
G|--------0---0-------0---0-|--2--2--2---2-------0---0-|
D|-----2--2--------2--2-----|--0--0--0--------0--0-----|
A|--2--2--2-----3--3--3-----|--x--x--------2--2--2-----|
E|--0--0--------x--x--------|--------------3--3--------|

    Em7                       D         Em
e|-------------------------|--2-------2-----------------|
B|-------1--1--1--1--1--1--|--3-------3-----------------|
G|-------0--0--0--0--0--0--|--2-------2-0---------------|
D|-------2--2--2--2--2--2--|--0-------0-2--------0-2----|
A|-------2--2--2--2--2--2--|------------2----0h2--------|
E|--0----------------------|------------0------------0--|

    Em          C              D           G           
e|------------0-----------0-|--------2---2-------3---3-|
B|--------0---0-------1---1-|--------3---3-------3---3-|
G|--------0---0-------0---0-|--2--2--2---2-------0---0-|
D|-----2--2--------2--2-----|--0--0--0--------0--0-----|
A|--2--2--2-----3--3--3-----|--x--x--------2--2--2-----|
E|--0--0--------x--x--------|--------------3--3--------|

    Em          C              D           G           
e|------------0-----------0-|--------2---2-------3---3-|
B|--------0---0-------1---1-|--------3---3-------3---3-|
G|--------0---0-------0---0-|--2--2--2---2-------0---0-|
D|-----2--2--------2--2-----|--0--0--0--------0--0-----|
A|--2--2--2-----3--3--3-----|--x--x--------2--2--2-----|
E|--0--0--------x--x--------|--------------3--3--------|

    Em          C              D           G           
e|------------0-----------0-|--------2---2-------3---3-|
B|--------0---0-------1---1-|--------3---3-------3---3-|
G|--------0---0-------0---0-|--2--2--2---2-------0---0-|
D|-----2--2--------2--2-----|--0--0--0--------0--0-----|
A|--2--2--2-----3--3--3-----|--x--x--------2--2--2-----|
E|--0--0--------x--x--------|--------------3--3--------|

    Em7                        G
e|--0--0--0--0--0--0--0--0--|--3--3--3--3--3--3--3--3--|
B|--1--1--1--1--1--1--1--1--|--3--3--3--3--3--3--3--3--|
G|--0--0--0--0--0--0--0--0--|--0--0--0--0--0--0--0--0--|
D|--2--2--2--2--2--2--2--2--|--0--0--0--0--0--0--0--0--|
A|--2--2--2--2--2--2--2--2--|--2--2--2--2--2--2--2--2--|
E|--0--0--0--0--0--0--0--0--|--3--3--3--3--3--3--3--3--|

    C                          Am          G          
e|--0--0--0--0--0--0--0--0--|------------0-------3---3-|
B|--1--1--1--1--1--1--1--1--|--------1---1-------3---3-|
G|--0--0--0--0--0--0--0--0--|-----2--2---2-------0---0-|
D|--2--2--2--2--2--2--2--2--|--2--2--2--------0--0-----|
A|--3--3--3--3--3--3--3--3--|--0--0--0-----2--2--2-----|
E|--------------------------|--------------3--3--3-----|

    Em7                        G
e|--0--0--0--0--0--0--0--0--|--3--3--3--3--3--3--3--3--|
B|--1--1--1--1--1--1--1--1--|--3--3--3--3--3--3--3--3--|
G|--0--0--0--0--0--0--0--0--|--0--0--0--0--0--0--0--0--|
D|--2--2--2--2--2--2--2--2--|--0--0--0--0--0--0--0--0--|
A|--2--2--2--2--2--2--2--2--|--2--2--2--2--2--2--2--2--|
E|--0--0--0--0--0--0--0--0--|--3--3--3--3--3--3--3--3--|

    C                          Am          G          
e|--0--0--0--0--0--0--0--0--|------------0-------3---3-|
B|--1--1--1--1--1--1--1--1--|--------1---1-------3---3-|
G|--0--0--0--0--0--0--0--0--|-----2--2---2-------0---0-|
D|--2--2--2--2--2--2--2--2--|--2--2--2--------0--0-----|
A|--3--3--3--3--3--3--3--3--|--0--0--0-----2--2--2-----|
E|--------------------------|--------------3--3--3-----|

    Em          C              D           G           
e|------------0-----------0-|--------2---2-------3---3-|
B|--------0---0-------1---1-|--------3---3-------3---3-|
G|--------0---0-------0---0-|--2--2--2---2-------0---0-|
D|-----2--2--------2--2-----|--0--0--0--------0--0-----|
A|--2--2--2-----3--3--3-----|--x--x--------2--2--2-----|
E|--0--0--------x--x--------|--------------3--3--------|

    Em          C              D           G           
e|------------0-----------0-|--------2---2-------3---3-|
B|--------0---0-------1---1-|--------3---3-------3---3-|
G|--------0---0-------0---0-|--2--2--2---2-------0---0-|
D|-----2--2--------2--2-----|--0--0--0--------0--0-----|
A|--2--2--2-----3--3--3-----|--x--x--------2--2--2-----|
E|--0--0--------x--x--------|--------------3--3--------|

    Em          C              D           G           
e|------------0-----------0-|--------2---2-------3---3-|
B|--------0---0-------1---1-|--------3---3-------3---3-|
G|--------0---0-------0---0-|--2--2--2---2-------0---0-|
D|-----2--2--------2--2-----|--0--0--0--------0--0-----|
A|--2--2--2-----3--3--3-----|--x--x--------2--2--2-----|
E|--0--0--------x--x--------|--------------3--3--------|
[ Tab from: http://www.guitartabs.cc/tabs/n/neil_young/heart_of_gold_tab_ver_5.html ]
    Em7                       D         Em
e|-------------------------|--2-------2-----------------|
B|-------1--1--1--1--1--1--|--3-------3-----------------|
G|-------0--0--0--0--0--0--|--2-------2-0---------------|
D|-------2--2--2--2--2--2--|--0-------0-2--------0-2----|
A|-------2--2--2--2--2--2--|------------2----0h2--------|
E|--0----------------------|------------0------------0--|

    Em          C              D           G           
e|------------0-----------0-|--------2---2-------3---3-|
B|--------0---0-------1---1-|--------3---3-------3---3-|
G|--------0---0-------0---0-|--2--2--2---2-------0---0-|
D|-----2--2--------2--2-----|--0--0--0--------0--0-----|
A|--2--2--2-----3--3--3-----|--x--x--------2--2--2-----|
E|--0--0--------x--x--------|--------------3--3--------|

    Em          C              D           G           
e|------------0-----------0-|--------2---2-------3---3-|
B|--------0---0-------1---1-|--------3---3-------3---3-|
G|--------0---0-------0---0-|--2--2--2---2-------0---0-|
D|-----2--2--------2--2-----|--0--0--0--------0--0-----|
A|--2--2--2-----3--3--3-----|--x--x--------2--2--2-----|
E|--0--0--------x--x--------|--------------3--3--------|

    Em          C              D           G           
e|------------0-----------0-|--------2---2-------3---3-|
B|--------0---0-------1---1-|--------3---3-------3---3-|
G|--------0---0-------0---0-|--2--2--2---2-------0---0-|
D|-----2--2--------2--2-----|--0--0--0--------0--0-----|
A|--2--2--2-----3--3--3-----|--x--x--------2--2--2-----|
E|--0--0--------x--x--------|--------------3--3--------|

    Em7                        G
e|--0--0--0--0--0--0--0--0--|--3--3--3--3--3--3--3--3--|
B|--1--1--1--1--1--1--1--1--|--3--3--3--3--3--3--3--3--|
G|--0--0--0--0--0--0--0--0--|--0--0--0--0--0--0--0--0--|
D|--2--2--2--2--2--2--2--2--|--0--0--0--0--0--0--0--0--|
A|--2--2--2--2--2--2--2--2--|--2--2--2--2--2--2--2--2--|
E|--0--0--0--0--0--0--0--0--|--3--3--3--3--3--3--3--3--|

    C                          Am          G          
e|--0--0--0--0--0--0--0--0--|------------0-------3---3-|
B|--1--1--1--1--1--1--1--1--|--------1---1-------3---3-|
G|--0--0--0--0--0--0--0--0--|-----2--2---2-------0---0-|
D|--2--2--2--2--2--2--2--2--|--2--2--2--------0--0-----|
A|--3--3--3--3--3--3--3--3--|--0--0--0-----2--2--2-----|
E|--------------------------|--------------3--3--3-----|

    Em7                        G
e|--0--0--0--0--0--0--0--0--|--3--3--3--3--3--3--3--3--|
B|--1--1--1--1--1--1--1--1--|--3--3--3--3--3--3--3--3--|
G|--0--0--0--0--0--0--0--0--|--0--0--0--0--0--0--0--0--|
D|--2--2--2--2--2--2--2--2--|--0--0--0--0--0--0--0--0--|
A|--2--2--2--2--2--2--2--2--|--2--2--2--2--2--2--2--2--|
E|--0--0--0--0--0--0--0--0--|--3--3--3--3--3--3--3--3--|

    C                          Am          G          
e|--0--0--0--0--0--0--0--0--|------------0-------3---3-|
B|--1--1--1--1--1--1--1--1--|--------1---1-------3---3-|
G|--0--0--0--0--0--0--0--0--|-----2--2---2-------0---0-|
D|--2--2--2--2--2--2--2--2--|--2--2--2--------0--0-----|
A|--3--3--3--3--3--3--3--3--|--0--0--0-----2--2--2-----|
E|--------------------------|--------------3--3--3-----|

    Em          C              D           G           
e|------------0-----------0-|--------2---2-------3---3-|
B|--------0---0-------1---1-|--------3---3-------3---3-|
G|--------0---0-------0---0-|--2--2--2---2-------0---0-|
D|-----2--2--------2--2-----|--0--0--0--------0--0-----|
A|--2--2--2-----3--3--3-----|--x--x--------2--2--2-----|
E|--0--0--------x--x--------|--------------3--3--------|

    Em          C              D           G           
e|------------0-----------0-|--------2---2-------3---3-|
B|--------0---0-------1---1-|--------3---3-------3---3-|
G|--------0---0-------0---0-|--2--2--2---2-------0---0-|
D|-----2--2--------2--2-----|--0--0--0--------0--0-----|
A|--2--2--2-----3--3--3-----|--x--x--------2--2--2-----|
E|--0--0--------x--x--------|--------------3--3--------|

    Em          C              D           G           
e|------------0-----------0-|--------2---2-------3---3-|
B|--------0---0-------1---1-|--------3---3-------3---3-|
G|--------0---0-------0---0-|--2--2--2---2-------0---0-|
D|-----2--2--------2--2-----|--0--0--0--------0--0-----|
A|--2--2--2-----3--3--3-----|--x--x--------2--2--2-----|
E|--0--0--------x--x--------|--------------3--3--------|

    Em7                       D         Em
e|-------------------------|--2-------2-----------------|
B|-------1--1--1--1--1--1--|--3-------3-----------------|
G|-------0--0--0--0--0--0--|--2-------2-0---------------|
D|-------2--2--2--2--2--2--|--0-------0-2--------0-2----|
A|-------2--2--2--2--2--2--|------------2----0h2--------|
E|--0----------------------|------------0------------0--|

    Em7                       D         Em
e|-------------------------|--2-------2-----------------|
B|-------1--1--1--1--1--1--|--3-------3-----------------|
G|-------0--0--0--0--0--0--|--2-------2-0---------------|
D|-------2--2--2--2--2--2--|--0-------0-2--------0-2----|
A|-------2--2--2--2--2--2--|------------2----0h2--------|
E|--0----------------------|------------0------------0--|

    Em7                       D         Em
e|-------------------------|--2-------2-----------------|
B|-------1--1--1--1--1--1--|--3-------3-----------------|
G|-------0--0--0--0--0--0--|--2-------2-0---------------|
D|-------2--2--2--2--2--2--|--0-------0-2--------0-2----|
A|-------2--2--2--2--2--2--|------------2----0h2--------|
E|--0----------------------|------------0------------0--|

    Em7                        G
e|--0--0--0--0--0--0--0--0--|--3--3--3--3--3--3--3--3--|
B|--1--1--1--1--1--1--1--1--|--3--3--3--3--3--3--3--3--|
G|--0--0--0--0--0--0--0--0--|--0--0--0--0--0--0--0--0--|
D|--2--2--2--2--2--2--2--2--|--0--0--0--0--0--0--0--0--|
A|--2--2--2--2--2--2--2--2--|--2--2--2--2--2--2--2--2--|
E|--0--0--0--0--0--0--0--0--|--3--3--3--3--3--3--3--3--|

    C                          Am          G          
e|--0--0--0--0--0--0--0--0--|------------0-------3---3-|
B|--1--1--1--1--1--1--1--1--|--------1---1-------3---3-|
G|--0--0--0--0--0--0--0--0--|-----2--2---2-------0---0-|
D|--2--2--2--2--2--2--2--2--|--2--2--2--------0--0-----|
A|--3--3--3--3--3--3--3--3--|--0--0--0-----2--2--2-----|
E|--------------------------|--------------3--3--3-----|

End

Lyrics : 

I want to live,
I want to give
I've been a miner for a heart of gold.
It's these expressions
I never give
That keep me searching for a heart of gold.

And I'm getting old.
Keep me searching for a heart of gold
And I'm getting old.

I've been to Hollywood
I've been to Redwood
I crossed the ocean for a heart of gold.
I've been in my mind,
It's such a fine line
That keeps me searching for a heart of gold.

And I'm getting old.
Keeps me searching for a heart of gold
And I'm getting old.

Keep me searching for a heart of gold.
You keep me searching and I'm growing old.
Keep me searching for a heart of gold
I've been a miner for a heart of gold. 
Comments