Neil Young - Good To See You Chords & Tabs

 

Good To See You Chords & Tabs

Neil Young Chords & Tabs

Version: 1 Type: Tab 0 ratings
1 star 2 stars 3 stars 4 stars 5 stars
comments

Good To See You Tab

   
Chords:
  G   320003
  D   xx0232
  C   x32010
  Am7 x02010
  Em  022000

Intro:
    G               D
E|------3-3-------------2-2-----2-2--|
B|------0-0-----0---0h3-3-3-----3-3--|
G|------0-0-0h2---------2-2-----2-2--|
D|--------------------------0--------|
A|-----------------------------------|
E|--3--------------------------------|

    C
E|------0-0-----0-0-----0-0-----0-0--|
B|------1-1-----1-1-----1-1-----1-1--|
G|------0-0-----0-0-0h2-0-0-0---0-0--|
D|----------0h2----------------------|
A|--0h3------------------------------|
E|-----------------------------------|

    G               D
E|------3-3-------------2-2-----2-2--|
B|------0-0-----0---0h3-3-3-----3-3--|
G|------0-0-0h2---------2-2-----2-2--|
D|--------------------------0--------|
A|-----------------------------------|
E|--3--------------------------------|

    Am7             C
E|----------------------0-0----------|
B|--0h1---1---1---------1-1----------|
G|--------------0-------0-0-----0----|
D|----------2---------------0h2------|
A|------0-----------0h3--------------|
E|-----------------------------------|

    G               D
E|------3-3-------------2-2-----2-2--|
B|------0-0-----0-------3-3-----3-3--|
G|------0-0-0h2---------2-2-2---2-2--|
D|------------------0----------------|
A|-----------------------------------|
E|--3--------------------------------|
[ Tab from: http://www.guitartabs.cc/tabs/n/neil_young/good_to_see_you_tab.html ]
    Em              C
E|------0-0-------------0-0-----0-0--|
B|------0-0-------------1-1-----1-1--|
G|------0-0-------------0-0-----0-0--|
D|--0h2-----2---0-----------0h2------|
A|------------------3----------------|
E|-----------------------------------|

    G               D
E|------3-3-------------2-2----------|
B|------0-0-----0---0h3-3-3-1---0----|
G|------0-0-0h2---------2-2----------|
D|-----------------------------------|
A|-----------------------------------|
E|--3--------------------------------|

    C
E|------0-0-----0-0-----0-0-----0-0--|
B|------1-1-----1-1-----1-1-----1-1--|
G|--0---0-0-----0-0-----0-0-----0-0--|
D|------------------2----------------|
A|----------3---------------3--------|
E|-----------------------------------|

Chorus:
G       D       C
Good to see you,
G       D        Am7  C
Good to see you again;
G            D        Em        C
It's good to see your face again,
G       D       C
Good to see you.

Verse:
G                     D
I've been down on the endless highway,
Am7    C                          G
I have crossed from the sourthern line;
G               D
Now at last I'm home to you,
Em                        C
I feel like making up for lost time.

Chorus:
Good to see you,
Good to see you again;
It's good to see your face again,
Good to see you.

Repeat intro

Verse:
I'm the suitacse in your hallway,
I'm the footseps on your floor;
When I'm looking down on you,
I feel like I know what my life is for.

Chorus:
Good to see you,
Good to see you again;
It's good to see your face again,
Good to see you.

Finish on G
Comments