Neil Young - Downtown Chords & Tabs

 

Downtown Chords & Tabs

Neil Young Chords & Tabs

Version: 2 Type: Bass Tab 0 ratings
1 star 2 stars 3 stars 4 stars 5 stars
comments

Downtown Bass Tab

DOWNTOWN
BY NEIL YOUNG
TABBED BY James Ryan

INTRO

G|---------------------------------------|
D|---------------4-3-2-------------------|
A|-7----5---------------------7--5-------|
E|-----------5-5---------------------5-5-|

VERSE/OUTRO
[ Tab from: http://www.guitartabs.cc/tabs/n/neil_young/downtown_btab_ver_2.html ]
G|---------------------------------------|
D|---------------4-3-2-------------------|
A|-7----5---------------------7--5-------|
E|-----------5-5---------------------5-5-|

OR

G|---------------------------------------|
D|---------------------------------------|
A|-7----5---------------------7--5-------|
E|-----------5-5-5-5-5---------------5-5-|



THAT'S ALL      ----PLEASE TAB MORE NEIL YOUNG----
Comments