Neil Young - Buffalo Stomp Chords & Tabs

 

Buffalo Stomp Chords & Tabs

Neil Young Chords & Tabs

Version: 1 Type: Tab 0 ratings
1 star 2 stars 3 stars 4 stars 5 stars
comments

Buffalo Stomp Tab

     Buffalo Stomp - Neil Young's Arrangement
     From the Movie _Where the Buffalo Roam_
     tabbed by Steve Vetter [vetters@vax1.elon.edu]
     Done using Wintab

     Remember, crank the distortion, reverb and chorus if you've got it!


     * any suggestions for this spot are welcome
[ Tab from: http://www.guitartabs.cc/tabs/n/neil_young/buffalo_stomp_tab.html ]
                                                                              
                                                                              
     |--3--1--0-----0--------------------------------|                        
     |-----------3-----1--1--1--1--1--1--0-----3-----|                        
     |--------------------------------------2--------|                        
     |-----------------------------------------------|                        
     |-----------------------------------------------|                        
     |-----------------------------------------------|                        
                                                                              
                                                                              
                                   *                                           
                                                                              
     |--------------0--------------0--------|                                 
     |--------1--3-----1--0-----3--3--3-----|                                 
     |--0--0-----------------2--------------|                                 
     |--------------------------------------|                                 
     |--------------------------------------|                                 
     |--------------------------------------|                                 
                                                                              
                                                                              
                                                                              
                                                                              
     |-----------------------------                                           
     |--3--3--2--0-----------0-----                                           
     |--------------2--1--2-----2--                                           
     |-----------------------------                                           
     |-----------------------------                                           
     |-----------------------------                                           
                                                                              

     Oh, give me a home,
     Where the Buffalo Roam,
     And the deer and the antelope play,
     Where seldom is heard,
     A discouraging word,
     And the skies are not cloudy all day.


  +-+-+-+-+-+-+-+-+-+-+-+-+-+-+-+-+-+-+-+-+-+-+-+-+-+-+-+-+-+-+-+-+-+-+-+-+-+
  I  Steve Vetter                    I  I'm not the same                    I
  I  vetters@vax1.elon.edu           I   As I was long ago                  I
  I  Elon College                    I  I've learned some new things        I
  I  Love School of Business         I   And I hope that it shows...        I
  I  Alpha Kappa Psi                 I      - Neil Young                    I
  +-+-+-+-+-+-+-+-+-+-+-+-+-+-+-+-+-+-+-+-+-+-+-+-+-+-+-+-+-+-+-+-+-+-+-+-+-+
Comments