Neil Young - After The Goldrush Chords & Tabs

 

After The Goldrush Chords & Tabs

Neil Young Chords & Tabs

Version: 1 Type: Tab 0 ratings
1 star 2 stars 3 stars 4 stars 5 stars
comments

After The Goldrush Tab

Neil Young- After the Gold rush solo tab 

I'm not going to do a tab of the whole song as there is already a perfect tab up.
However it is missing the solo entirely so I thought I'd tab it as it sounds great
and is super easy.

Horn arr. For guitar

E|-----0--2--2--2--2--2-/-(0)--0--0--------|
B|--3--------------------------------3--3--|
G|-----------------------------------------|
D|-----------------------------------------|
A|-----------------------------------------|
E|-----------------------------------------|

E|-----0--2--2--2--2--2-/-(0)--0-----|
B|--3-----------------------------3--|
G|-----------------------------------|
D|-----------------------------------|
A|-----------------------------------|
E|-----------------------------------|

E|-----0--2--2--2--2--2--3--2--0--0--0--0--0--2--------2--0--|
B|--3--------------------------------------------3--3--------|
G|-----------------------------------------------------------|
D|-----------------------------------------------------------|
A|-----------------------------------------------------------|
E|-----------------------------------------------------------|
[ Tab from: http://www.guitartabs.cc/tabs/n/neil_young/after_the_goldrush_tab.html ]
E|--5--7--5--2--2--2--0-----0--|-----0--2-----------0--|
B|-----------------------3-----|--3--------3--3--3-----|
G|-----------------------------|-----------------------|
D|-----------------------------|-----------------------|
A|-----------------------------|-----------------------|
E|-----------------------------|-----------------------|

E|-----0--2--2--2--2--2--3--2--0--0--|--0--0--2--------------|
B|--3--------------------------------|-----------3--3--0--3--|
G|-----------------------------------|-----------------------|
D|-----------------------------------|-----------------------|
A|-----------------------------------|-----------------------|
E|-----------------------------------|-----------------------|

E|-----0--2--2--2--2--2--3--2--0--0--|--0--0--2--------------|
B|--3--------------------------------|-----------3--3--0--3--|
G|-----------------------------------|-----------------------|
D|-----------------------------------|-----------------------|
A|-----------------------------------|-----------------------|
E|-----------------------------------|-----------------------|

I am 100% sure of the accuracy of the tab so if it sounds wrong, your playing it wrong.
Please rate this tab J
Comments