Neil Diamond - Forever In Blue Jeans Chords & Tabs

 

Forever In Blue Jeans Chords & Tabs

Neil Diamond Chords & Tabs

Version: 1 Type: Tab 0 ratings
1 star 2 stars 3 stars 4 stars 5 stars
comments

Forever In Blue Jeans Tab

   
i've seen chords for this before but it's got a nice little intro that i've tried to
do from remembering the song in my head so it won't be perfect.

Intro

E|-----------------------------------------------0---------0----------------|
B|-0-2---2----0-2-0---0-0h2/3------0---0-2-2/3-----0h2-0-----0h2-0-----0h2--|
G|-----2----2-------2---------2------2---------2---------2---------2-2-----2|
D|--------------------------------------------------------------------------|
A|-0------0-----------------------------------------------------------------|
E|--------------------------------------------------------------------------|

E|------0---------|
B|--------3-1-0---|
G|----------------|
D|----------------|
A|----------------|
E|----------------|

Chords
[ Tab from: http://www.guitartabs.cc/tabs/n/neil_diamond/forever_in_blue_jeans_tab.html ]
A                                           D 
Money talks but it can't sing and dance and it can't walk,
                       A        Bm           C#m          E
Long as i can have you here with me i'd much rather be,
           A                 E     D     C    {? chord}
Forever in blue jeans babe!

2nd part follows above pattern

Honey's sweet but it ain't nothing next to baby's treat,
And if you pardon me I'd like to say we do okay,
forever in blue jeans.

3rd Part

A                       A7            Dm            A7        A
Maybe tonight, maybe to-night, by the fire all alone you and I,
        G              D           Dsus           E
Nothing around but the sound of my heart and your sighs. 


there you go!
Comments