Negative Child - Peace And War Chords & Tabs

 

Peace And War Chords & Tabs

Negative Child Chords & Tabs

Version: 1 Type: Tab 0 ratings
1 star 2 stars 3 stars 4 stars 5 stars
comments

Peace And War Tab

this is the first song ever written by negtive child
[ Tab from: http://www.guitartabs.cc/tabs/n/negative_child/peace_and_war_tab.html ]
Guitar 1
e||------------------------------------------3--
B||-------3----3------1---1------1---1----------
G||---------3----3------1---2------2---2-----0--
D||-----------------2---------------------------
A||---------------------------------------------
E||---------------------------------------------
 ||                                           
 || Guitar 2                                  
e||---------------------------------------------
B||---2-------3----3----1----1----1----1----1--
G||--2-3----3----3----2----2----2----2----2--0--
D||---------------------------------------------
A||---------------------------------------------
E||---------------------------------------------
Comments