Neds Atomic Dustbin - Grey Cell Green Chords & Tabs

 

Grey Cell Green Chords & Tabs

Neds Atomic Dustbin Chords & Tabs

Version: 2 Type: Tab 0 ratings
1 star 2 stars 3 stars 4 stars 5 stars
comments

Grey Cell Green Tab

   
#----------------------------------PLEASE NOTE---------------------------------#
#This file is the author's own work and represents their interpretation of the #
#song. You may only use this file for private study, scholarship, or research. #
#------------------------------------------------------------------------------##

Subject: TAB: Grey Cell Green by Neds Atomic Dustbin


Transcriped by Dave King s925047@minyos.xx.rmit.oz.au

        'Grey Cell Green' by Ned's Atomic Dustbin
                from 'God Fodder' and 'Bite'

The intro is played on the 2nd bass but high up and ringy (on the God Fodder
version) but it's still sounds good on a guitar....

Intro

----------------------------------------------------------------------------|
----------------------------------------------------------------------------|
----------------9-9-9-9/11-11-7-7-7-7\6-6-7-7-7-----------------------------|
--7-7-7-7-7/9-9-9-9-9-9/11-11-7-7-7-7\6-6-7-7-7-----------------------------|
--7-7-7-7-7/9-9-7-7-7-7/9--9--5-5-5-5\4-4-5-5-5-5h7-------------------------|
--5-5-5-5-5/7-7-------------------------------------------------------------|

The rest is just AED chords played at positions V,VII,V

A      E       D        D
             Desire
A         E    D        D     A
   When your desire has been found
E                 D              D
You'll be running far away.......far away
A                      E
You're telling me it's in the trees, in the trees
D             D
It's not it's inside me now
A                      E
You're telling me it's on the ground, it's all around
D             D
It's not it's inside me
A                      E
You're telling me it's in disguise well use your eyes
D             D
It's not it's inside me
A                      E
You're telling me it's mother earth some sign of birth
D           D
It's not it's inside me

(repeat)

after 2nd time through there's the link with the cool drum bit and
i just play ....

-------------------------------------------|
--2-2-2-2-(/)-9-9-9-9-(\)-7-7-7-7-7-7-7-7--|
--2-2-2-2-(/)-9-9-9-9-(\)-7-7-7-7-7-7-7-7--|
--2-2-2-2-(/)-9-9-9-9-(\)-7-7-7-7-7-7-7-7--|
-------------------------------------------|
-------------------------------------------|
etc. the (/) is sort of a muffled slide but i just slam away here
[ Tab from: http://www.guitartabs.cc/tabs/n/neds_atomic_dustbin/grey_cell_green_tab_ver_2.html ]
A               E                              D       D
The grey cell's green only if the green cell's grey
A               E                              D       D
The grey cell's green only if the green cell's grey
                A

The solo bit over the end is like this (no timing just work it out)

--------------------------------------------------------------------------|
--14-15-17--14-15-17--14-15-17--14-15-17--14-15-17--14-15-17--14-15-17----|
--------------------------------------------------------------------------|
--------------------------------------------------------------------------|
--------------------------------------------------------------------------|
--------------------------------------------------------------------------|


-----------------------------------------------------------------------------|
--15-14^^^^^^--15p14-------14h15p14------------------14-15-15-14-15-15-14-15-|
---------------------16-16----------16-14^^^^--14-16-------------------------|
-----------------------------------------------------------------------------|
-----------------------------------------------------------------------------|
-----------------------------------------------------------------------------|


--------------------------------------------------------------------------|
-17-17-17-17-17-17-17-17--17-17-17-17-17-15-14--17-17-17-17-17-15-14------|
--------------------------------------------------------------------------|
--------------------------------------------------------------------------|
--------------------------------------------------------------------------|
--------------------------------------------------------------------------|


--------------------------------------------------------------------------|
--17-17-17-17-17-15-14-15-14^^^^^--15p14-------14h15p14-------------------|
-----------------------------------------16-16----------16-14^^^^^--------|
--------------------------------------------------------------------------|
--------------------------------------------------------------------------|
--------------------------------------------------------------------------|


--------------------------------------------------------------------------|
--------14-15-15-14-15-15-14-15-17-17-17-17-15-14-------------------------|
--14-16-------------------------------------------16-14^^^^^^-------------|
--------------------------------------------------------------------------|
--------------------------------------------------------------------------|
--------------------------------------------------------------------------|
Dave King s925047@minyos.xx.rmit.oz.au.
('Happy' and 'Walking Through Syrup' to come later)
Comments