Necrophobic - The Nocturnal Silence Chords & Tabs

 

The Nocturnal Silence Chords & Tabs

Necrophobic Chords & Tabs

Version: 1 Type: Tab 0 ratings
1 star 2 stars 3 stars 4 stars 5 stars
comments

The Nocturnal Silence Tab

Necrophobic - The Nocturnal Silence
>From the album - The Nocturnal Silence

Transcribed by Jim Kekonius
korpze@hotmail.com

Tune down all strings one whole step. (D)

Solo - Certainly not 100šorrect, but you get the general idea.
|------------------------------------------|
|------------------------------------------|
|-9~--9-11-12~-----11-12-14-12-11h12p9-5~--|
|---------------14-------------------------|
|------------------------------------------|
|------------------------------------------|
[ Tab from: http://www.guitartabs.cc/tabs/n/necrophobic/the_nocturnal_silence_tab.html ]
|-------------------------7h12p7-------------------------|
|-----------------------8--------8----8h12p8-------------|
|-9--5--4-------------9------------9~--------9-----------|
|----------5-4------9--------------------------9---------|
|--------------7h10------------------------------10-9-7~-|
|--------------------------------------------------------|

|--------------------------------------|
|--------------------------------------|
|--------------------------------------|
|----------7h9h10p9p7------------------|
|-5h7h9/10------------10p9p7-6~--3~-2~-|
|--------------------------------------|

|-0-7-5-0-3p0-2p0-0-7-5-0-3p0-2p0-| * 2
|---------------------------------|
|---------------------------------|
|---------------------------------|
|---------------------------------|
|---------------------------------|

|------------------------------------------------------------|
|-5p0-7p0-8p0-5p0-7p0-3p0-5p0-0-5p0-7p0-8p0-5p0-4tr5-1-0--5~-|
|------------------------------------------------------------|
|------------------------------------------------------------|
|------------------------------------------------------------|
|------------------------------------------------------------|
Comments