Necrophobic - Awakening Chords & Tabs

 

Awakening Chords & Tabs

Necrophobic Chords & Tabs

Version: 1 Type: Tab 0 ratings
1 star 2 stars 3 stars 4 stars 5 stars
comments

Awakening Tab

                          
                          NECROPHOBIC-AWAKENING...
                          From the Album THE NOCTURNAL SILENCE
                          Copyright 1993 Black Mark Productions
                      
                          Version 1.0 - November 1998


Transcribed by: Zack Demianczyk(Malignant)
 email Zack at dio@nauticom.net, for questions or corrections

Visit my homepage at http://www.angelfire.com/ak2/MalignantTabs/index.html
(Malignant Tablature Dominion)


/     slide up
\     slide down
p     pull on
h     hammer on
~     vibrato
.     palm mute



Tuning: D (1 Whole Step Down)


 
keyboard intro (0:18)


 play 5 times
|---------------------------------|
|-----------------------5---4-----|
|---4---5---4---5---4-----------5-|
|-2---2---2---2---2---2---2---2---|
|---------------------------------|
|---------------------------------|
|                                 |
|---------------------------------|
|---------------------------------|
|---------------------------------|
|---------------------------------|
|-2--2------------------------2-2-|
|-0--0-let-ring---------------0-0-|


 play 2 times
  .....                               .....
|--------------------------------------------------------------------------|
|--------------------------------------------------------------------------|
|--------------------------------------------------------------------------|
|--------------------------------------------------------------------------|
|------2222233333333/7777777766666666------2222233333333-------------------|
|-00000-------------------------------00000-------------111111114444411111-|


 play 4 times
|-------------------------------------------|
|-------------------------------------------|
|-------------------------------------------|
|--------------------------------3-333--6\3-|
|-222-5\3--3-333-6\3--2-222--5\3-1-111--4\1-|
|-000-3\1--1-111-4\1--0-000--3\1------------|


 play 2 times
  .....                    1.________________  2._______________
|-------------------------|-------------------|------------------|
|-------------------------|-------------------|------------------|
|-------------------------|-------------------|-5----------------|
|------222222111111-------|-------------------|-3----7----6----3-|
|------------------222222-|-33333-------------|-3----5----4----1-|
|-00000-------------------|------555544441111-|------5----4----1-|


 play 2 times
  .....
|-----------------------------------------------------------------------|
|-----------------------------------------------------------------------|
|-----------------------------------------------------------------------|
|-----------------------------------------------------------------------|
|------2222333300002222--------------------3333444411113333-------------|
|-00000----------------444455551111---00000----------------555566662222-|


 play 2 times
  .....                    1.________________  2._______________
|-------------------------|-------------------|------------------|
|-------------------------|-------------------|------------------|
|-------------------------|-------------------|-5----------------|
|------222222111111-------|-------------------|-3----7----6----3-|
|------------------222222-|-33333-------------|-3----5----4----1-|
|-00000-------------------|------555544441111-|------5----4----1-|

[ Tab from: http://www.guitartabs.cc/tabs/n/necrophobic/awakening_tab.html ]
 play 6 times
  .     .     .     .      .     .     .       .
|---------------------------------------------------|
|---------------------------------------------------|
|---------------------------------------------------|
|---2-3---2h3---2-3---2h3----2-3---2h3--------------|
|-0-----0------------------0-----0-------6-7----6h7-|
|-------------1-----1------------------4------4-----|
|                                                   |
|---------------------------------------------------|
|---------------------------------------------------|
|-2------------------------2------------------------|
|-2-----------3------------2-----------6------------|
|-0-----------3------------0-----------6------------|
|-------------1------------------------4------------|


 play 4 times
|-----------------------------------------------------------------------------------------|
|-----------------------------------------------------------------------------------------|
|-----------------------------------------------------------------------------------------|
|-------5-----6----5-----------5-----6-----5-----------5-----6-----5---------5555---------|
|-3-333---333---333--333-------------------------3-333---333---333---333---------66665555-|
|------------------------4-444---444---444---444-------------------------4444-------------|


|------|
|------|
|------|
|--4---|
|--4---|
|--2---|


 play 1 time
|--------------------------------------------------------------------|
|--------------------------------------------------------------------|
|--------------------------------------------------------------------|
|------33------22------55------44-------33------22------55------44---|
|-55555--554444--447777--776666--6655555--554444--447777--776666--66-|
|--------------------------------------------------------------------|
|                                                                    |
|--------------------------------------------------------------------|
|--------------------------------------------------------------------|
|--------------------------------------------------------------------|
|--------------------------------------------------------------------|
|----------------------------------4--------3------2--------3--------|
|----------------------------------2--------1------0--------1--------|


 play 2 times
|--------------------------------------------------------------------|
|--------------------------------------------------------------------|
|--------------------------------------------------------------------|
|------33------22------55------44-------33------22------55------44---|
|-55555--554444--447777--776666--6655555--554444--447777--776666--66-|
|--------------------------------------------------------------------|



 play 2 times                          1.__________  2.__________ 
|-------------------------------------|-------------|-------------|
|-------------------------------------|-------------|-------------|
|-------------------------------------|-------------|-------------|
|-7-7-7-7-7-7-8-8-8-8-8-8-7-7-7-7-7-7-|-6-6-6-6-6-6-|-------------|
|-5-5-5-5-5-5-5-5-5-5-5-5-5-5-5-5-5-5-|-4-4-4-4-4-4-|-----4-5-----|
|-------------------------------------|-------------|-5-6-----6-5-|


 play 2 times
 .....                    1.________________  2._______________
|-------------------------|-------------------|------------------|
|-------------------------|-------------------|------------------|
|-------------------------|-------------------|-5----------------|
|------222222111111-------|-------------------|-3----7----6----3-|
|------------------222222-|-33333-------------|-3----5----4----1-|
|-00000-------------------|------555544441111-|------5----4----1-|


 play 6 times
  .     .     .     .      .     .     .       .
|---------------------------------------------------|
|---------------------------------------------------|
|---------------------------------------------------|
|---2-3---2h3---2-3---2h3----2-3---2h3--------------|
|-0-----0------------------0-----0-------6-7----6h7-|
|-------------1-----1------------------4------4-----|
|                                                   |
|---------------------------------------------------|
|---------------------------------------------------|
|-2------------------------2------------------------|
|-2-----------3------------2-----------6------------|
|-0-----------3------------0-----------6------------|
|-------------1------------------------4------------|


|------|
|------|
|--2---|
|--2---|
|--0---|
|------|

This tab is not permitted or any others off my page to by posted anywhere without
asking me in head of time. For all the time it takes me to do some of these tabs please
ask me first, I would appreciate it, Zack Demianczyk (dio@nauticom.net)
Comments