Necronomica - Metallically Driven Chords & Tabs

 

Metallically Driven Chords & Tabs

Necronomica Chords & Tabs

Version: 1 Type: Tab 0 ratings
1 star 2 stars 3 stars 4 stars 5 stars
comments

Metallically Driven Tab

   
tuning is: drop "d" or:
e
g
b
d
a
d

heres the song. it may be changed over time but watever guys.

-------------------------------------|
-------------------------------------|
-------------------------------------|
----------------------3--3----------|  repeat 4 times
-----1------2-----3--1--1-5-4-3---|
0-0-1-0-0-2-0-0-3-0-0---5-4-3--|
^^     ^^    ^^     ^^
p p     p p    p p    p p

-------------------------------------|
-------------------------------------|
-------------------------------------|
-------------------------------------|  repeat 4 times and for the verse
-----1------2------3-----2------1/2|
0-0-1-0-0-2-0-0-3-0-0-2-0-0-1/2|
^^     ^^    ^^     ^^    ^^
p p     p p    p p    p  p    p p

--------------------------------------|
--------------------------------------|
--------------------------------------|
--------------------------------------| repeat 2 times for chorus
-----1---2---3----2---1----5-4-3-0|
0-0-1-0-2-0-3-0-2-0-1-0-5-4-3-0|
^^    ^    ^    ^    ^   ^
p p    p     p    p    p     p
[ Tab from: http://www.guitartabs.cc/tabs/n/necronomica/metallically_driven_tab.html ]
----------------------------|
----------------------------|
----------------------------|bridge from chorus
----------------------------|repeat 2 times 
2/1/2-2/1/2-2/1/3-1/2/3| 
2/1/2-2/1/2-2/1/2-1/2/3|

--------------------------------------------------------------------|
--------------------------------------------------------------------|
--------------------------------------------------------------------| repeat 2 times
--------------------------------------------------------------------| then blend into
5------3------2-----0---------------------------------------------| chorus
5-0-0-3-0-0-2-0-0-0-0-0-0-0-0-0-0-0-0-0-0-0-0-0-0---------|
  ^^      ^^    ^^    ^^^^^^^^^^^^^^^^^^^^
  p p     p p     p p    p p p p p p p p p p p p p p p p

Lyrics:

verse1
killing me is what you want
and none will stop to deny it.
Even though your hatred grows what
you dont know is your full of shit!
Rebel nation defies you
so you can go and shove it.
they will crucify you too
and they will fuckin' love it!!

chorus
You will deny what we are
until we strike and make your scar!

verse 2
armies fall beneath your fist
were questioning your leadership.
Now we walk on down the halls of
plans to make your nation fall!
All your men now stand at ease
they know about our faculties.
our hatred feeds off of your fear
you'll shake to find out
HELL IS HERE!!

chorus
you will deny what we are
until we strike and make your scar!
Comments