Necrodeath - Red As Blood Chords & Tabs

 

Red As Blood Chords & Tabs

Necrodeath Chords & Tabs

Version: 1 Type: Tab 0 ratings
1 star 2 stars 3 stars 4 stars 5 stars
comments

Red As Blood Tab

Necrodeath - "Red As Blood"
from the massacre "Black As Pitch"
      tab by Fasa

Guitar tuning : D
\ : slide down 
/ : slide up
h : hammer on
p : pull oof
... : palm muting

"Ciao animali, eccovi l'anteprima di una canzone incredibilmente violenta e furiosa : RED AS BLOOD dei grandi ed italianissimi NECRODEATH... L'album da cui
 tratta  l'altrettanto grande BLACK AS PITCH. Per ora scrivero soltanto alcuni
riff tralasciando anche i dettagli, ma prossimamente troverete la tab completa!!
La song non  molto difficile da suonare, quindi accordate le vostre asce in D
e massacratevi con RED AS BLOOD..."

Peso drums : one, two, tree, four
[ Tab from: http://www.guitartabs.cc/tabs/n/necrodeath/red_as_blood_tab.html ]
Intro (DDAAAAAAAAAAAAAAAAAAAAA!!!) :
                          ripetere 4 volte
--------------------------------------
--------------------------------------
--------------------------------------
-9-9-9-9-10-10-10-10-10-10-10-10------
-7-7-7-7-8--8--8--8--8--8--8--8-------
-0-0-0-0-0--0--0--0--8--8--8--8-------

Riff 1 :
                         ripetere 4 volte   
----------------------------------------
----------------------------------------
----------------------------------------
------------------------6-6-66-5-5-5----
-2-----7h8-7------7h8p5-4-4-44-3-3-3----
-0-0-0------0-0---------4-4-44-3-3-3----
   ...      ... 

Main Riff :

---------------------------------------------------
---------------------------------------------------
---------------------------------------------------
-------------------------------8p7-7---8h7p8-------
-7-----7-----8h7-8-7-----2-----------8-------------
-0-0-0-0-0-0---------0-0-0-0-0---------------------
   ...               ...  

Fine dell'anteprima! A breve sar disponibile la tab completa di RED AS BLOOD!!
CIAO!!

                             FASA 85
                      JESUS ANAL PENETRATION
Comments