Necrodeath - Mater Tenebrarum Chords & Tabs

 

Mater Tenebrarum Chords & Tabs

Necrodeath Chords & Tabs

Version: 1 Type: Tab 0 ratings
1 star 2 stars 3 stars 4 stars 5 stars
comments

Mater Tenebrarum Tab

                                  NECRODEATH
                               Mater Tenebrarum
                            from album Into the Macabre
       transcribed: Francesco Pizzi (cosmic_sea@totaldeath.com)


E-|------------------------------------------------------|
B-|------------------------------------------------------|
G-|--------4-5----------------3-4----------------2-3-----|
D-|--------------7-------------------6-----------------5-|
A-|-3---------------------2------------------1-----------|
E-|------------------------------------------------------|
       
Intro (clean) (not sure)

[ Tab from: http://www.guitartabs.cc/tabs/n/necrodeath/mater_tenebrarum_tab.html ]
E-|-----------------------------------------------------------------------|
B-|-----------------------------------------------------------------------|
G-|----------------6------------------5----------------4------------------|
D-|-------------------9------------------8-----------------7--------------|
A-|-7-6--5--5-5-5----------4--4-4-4---------3--3-3-3----------3---7-5-----|
E-|-5-4--3--3-3-3----------2--2-2-2---------1--1-1-1--------------6-4-----|
            . . .             . . .            . . .
             PM                 PM               PM
Distorted  (not sure on this too)

I will complete the tab soon,I think-
Comments