Nebula - Do It Now Chords & Tabs

 

Do It Now Chords & Tabs

Nebula Chords & Tabs

Version: 1 Type: Tab 0 ratings
1 star 2 stars 3 stars 4 stars 5 stars
comments

Do It Now Tab

   
Band - Nebula
Song - Do it Now

Tuning:D
Key:
h - hammer on
p - pull off
/ - slide up


Verse:
---------------------|
---------------------|
---------------------|
-2-5h7-5h7-7-8-9-2-5-| x3
-0---------5-6-7-0-3-|
---------------------|

-----------------------------|
-----------------------------|
-----------------------------|
-2-5h7-5h7p5---5--5-5--------|
-0-----------5-3--3-3-5--5-5-|
----------------------3--3-3-|
[ Tab from: http://www.guitartabs.cc/tabs/n/nebula/do_it_now_tab.html ]
Bridge:
-------------|
-------------|
-------------|
-5--5-5-5/---|
-3--3-3-3/---|
-------------|

Chorus:
--------------------|
--------------------|
--------------------|
-10--10--10-10-10-7-|
-8---8---8--8--8--5-|
--------------------|

------------------------|
------------------------|
------------------------|
-10--10---------7-5-7-9-|
-8---8---8h10p8-5-3-5-7-|
------------------------|

---------------------------|
---------------------------|
---------------------------|
-10--10--10-10-12-12-12-12-|
-8---8---8--8--10-10-10-10-|
---------------------------|
Comments