Nazareth - You Shot Me Down Chords & Tabs

 

You Shot Me Down Chords & Tabs

Nazareth Chords & Tabs

Version: 1 Type: Tab 0 ratings
1 star 2 stars 3 stars 4 stars 5 stars
comments

You Shot Me Down Tab

   
#----------------------------------PLEASE NOTE---------------------------------#
#This file is the author's own work and represents their interpretation of the #
#song. You may only use this file for private study, scholarship, or research. #
#------------------------------------------------------------------------------#

Song: You Shot Me Down
Words and Music by Nazareth
Tabbed by Conart_cry

Yes I also play bass


Gtr.1:G

Rythm Bass: H means to hammer-on
G|----------------------------------------------------------------------
D|----------------------------------------------------------5-4--2------
A|-------5--5H7--5-------5--5/7--5-----5--5H7--5----------5--------5----
E|--3-3------------3--3-------------3--------------3---3-------------3--

Verse 1 stay on G:
"I was feeling good.."
   C                                        Am                 G
G|---------------------------5--3--2----------------------------
D|-----5--5h7-5-----------5-----------5--------7--7h9--7--------
A|--3------------3-----3-----------------3---0-------------0----
E|--------------------------------------------------------------

Em            C                      G
I was lying passed out on the ground     you shot me down


[ Tab from: http://www.guitartabs.cc/tabs/n/nazareth/you_shot_me_down_tab.html ]
    C                    Am            G
Riff.1
E|-------------------------------------------
B|--13~~~~---12-13-12-13\10~--10-b1/4--------
G|--12~~~------------------------------------       x2
D|-------------------------------------------
A|-------------------------------------------
E|-------------------------------------------

                           You shot me down!

Guitar Solo:
                            1/4
E|----------------------------------------------------------------
B|------10-12-12-12~~~--12b--12-10----10-12h13p12-12~~~~--(12)\---
G|-5/12---------------------------12------------------------------
D|----------------------------------------------------------------
A|----------------------------------------------------------------
E|----------------------------------------------------------------


                        1/4
E|------------------------------------------------------
B|-------10-12-12-12-12b-12--10---10~~~-12h13p12-12~~---
G|-/5/12-----------------------12-----------------------
D|------------------------------------------------------
A|------------------------------------------------------
E|------------------------------------------------------
       1/4            1/4
E|------------------------------------------------------
B|--12b----12-10~~-12b---12-10-13-13/15~~/17-17~~~~~----
G|------------------------------------------------------
D|------------------------------------------------------
A|------------------------------------------------------
E|------------------------------------------------------
Comments