Nazareth - Razamanaz Chords & Tabs

 

Razamanaz Chords & Tabs

Nazareth Chords & Tabs

Version: 2 Type: Tab 0 ratings
1 star 2 stars 3 stars 4 stars 5 stars
comments

Razamanaz Tab

                            Nazareth  "Razamanaz"


I havebt seen this posted so ill post wut i know.
intro
gtr.1
E---------------------------------------------------------------------|
B---------------------------------------------------------------------|
G---------------------------------------------------------------------|
D--------------------7-9----------------------------------------------|
A--5-7---7-5---5-7---5-7--7-------------------------------------------|
E--3-5---5-3---3-5--------5-------------------------------------------|
[ Tab from: http://www.guitartabs.cc/tabs/n/nazareth/razamanaz_tab_ver_2.html ]
gtr.2
E--------------------5--------------------------------5---------------|
B------------------5---8---8-7-5---5-7b8r7-5--------5-----8-7-5-8-----|
G----7b9r7p5---7b9---------------7--------------7b9-------------------|
D---------------------------------------------------------------------|
A---------------------------------------------------------------------|
E---------------------------------------------------------------------|

E-----8--------8-10p8----8--------------------------------------------|
B--10---10-10---------10---10-8h10p8-9-8------------------------------|
G---------------------------------------------------------------------|
D---------------------------------------------------------------------|
A---------------------------------------------------------------------|
E---------------------------------------------------------------------|

chourus
E-----------------------------------------------------------------------|
B-----------------------------------------------------------------------|
G-----------------------------------------------------------------------|
D--7-7-9-7--------------------------------------------------------------|
A--5-5-5-5--------------------------------------------------------------|
E-----------------------------------------------------------------------|

4 the rest of the song, solo in the A minor pentatoinc scale.
Comments