Nazareth - Now Youre Messin With A Son Of A Bitch Chords & Tabs

 

Now Youre Messin With A Son Of A Bitch Chords & Tabs

Nazareth Chords & Tabs

Version: 1 Type: Tab 0 ratings
1 star 2 stars 3 stars 4 stars 5 stars
comments

Now Youre Messin With A Son Of A Bitch Tab

   
----------------------------------------------------------------------------
         Now You're Messin With a Son Of a Bitch   -   Nazareth
----------------------------------------------------------------------------

Tabbed by: Bobbygee
Email    : bobbygee13@yahoo.com

Tuning   : Standard


  Intro -  Drums w/ cowbell (2 measures)

  Repeat throughout 1st. verse;
  (riff 1.)
E|------------------------------|
B|------------------------------|
G|------------------------------|
D|--------------2---5-2-0-2-----|
A|------------2-----------------|
E|---0--0-3-4-------------------|

 Heartbreaker, soulshaker,
 I've been told about you,
 Seen you on the midnight show, girl,
 What they been sayin' must be true.

  (riff 2.)
E|-------------------------------|
B|-------------------------------|
G|--------------2---5-2-0-2------|
D|------------2------------------|
A|---0--0-3-4--------------------|
E|-------------------------------|
[ Tab from: http://www.guitartabs.cc/tabs/n/nazareth/now_youre_messin_with_a_son_of_a_bitch_tab.html ]
 Red hot mama!
 Now there's trouble!
 Times come to pay your dues!

 (riff 1.)

 E                  G   A
 Now you're messin' with a......a son of a bitch!
 E                             D    E               
 Now you're messin' with a son of a bitch!
 Now you're messin' with a......a son of a bitch!
 Now you're messin' with a son of a bitch!

 (riff 1.
 
 Talkin' jive and poison ivy,
 You ain't gonna cling to me,
 Man! take a bold thinker,
 I ain't so blind I can't see.

 (riff 2.)
 Red hot mama!
 There'll be trouble!
 Times come to pay your dues!

 (riff 1.)

 (chorus)

 (riff 1.)

 E / / / / | / / / /
 E / / D E | E / / / 
 E / / D E | E / D C B
 E / / D E | E / D C B 

 (riff 1.)

 (chorus)




 Questions? Comments? to: bobbygee13@yahoo.com
 "Kick out the jam motherfuckers!"  \m/ > < \m/
Comments