Nazareth - Miss Misery Chords & Tabs

 

Miss Misery Chords & Tabs

Nazareth Chords & Tabs

Version: 2 Type: Tab 0 ratings
1 star 2 stars 3 stars 4 stars 5 stars
comments

Miss Misery Tab

From the album:Hair Of The Dog(1975)
song title: Miss Misery

Legend:
   
 /:slide forward
thats all that in this song.

                           
e]-------------------------------------------------------------------
B]-------------------------------------------------------------------
G]-------------------------------------------------------------------
D]---7/9-9---7/9-9-----------7/9-9-----7/9-9---7/9-9-----------7/9-9-
A]---5/7-7---5/7-7----7--5---5/7-7-----5/7-7---5/7-7----7--5---5/7-7-
E]--------------------5--3------------------------------5--3---------

verse:1,2,3
e]-------------------------------------------------------------------
B]-------------------------------------------------------------------
G]-------------------------------------------------------------------
D]----------7/9-9-----------9--7-----------7/9-9-----------9--7------
A]--7/9-9---5/7-7---7/9-9---7--5---7/9-9---5/7-7---7/9-9---7--5------
E]--5/7-7-----------5/7-7----------5/7-7-----------5/7-7-------------
[ Tab from: http://www.guitartabs.cc/tabs/n/nazareth/miss_misery_tab_ver_2.html ]
e]-------------------------------------------------------------------
B]-------------------------------------------------------------------
G]-------------------------------------------------------------------
D]----------7/9-9-----------9--7-----------7/9-9-----------9--7------
A]--7/9-9---5/7-7---7/9-9---7--5---7/9-9---5/7-7---7/9-9---7--5------
E]--5/7-7-----------5/7-7----------5/7-7-----------5/7-7-------------

e]-------------------------------------------------------------------
B]-------------------------------------------------------------------
G]-------------------------------------------------------------------
D]----------7/9--9----7--7-------------------------------------------
A]--7/9-9---9/11-11---9--5---9---------------------------------------
E]--5/7-7--------------------7---------------------------------------

Chorus:1,2,3
e]-------------------------------------------------------------------
B]-------------------------------------------------------------------
G]-------------------------------------------------------------------
D]-------------------------------------------------------------------
A]--5--7--7/9-9---5--7--7/9-9---5--7--7/9-9---5--7--2----------------
E]--3--5--5/7-7---3--5--5/7-7---3--5--5/7-7---3--5--0----------------

tabbed by:Chris_21gk.   have fun and keep on rockin'
Comments