Navarro Lauren - My Song Chords & Tabs

 

My Song Chords & Tabs

Navarro Lauren Chords & Tabs

Version: 1 Type: Tab 0 ratings
1 star 2 stars 3 stars 4 stars 5 stars
comments

My Song Tab

 Capo 1
Intro: x2

        
        ----0-----------2-----
        ---3-3---------3-3----
        --2---2-------0---0---        
        -0-----0-----0-----0--
        ----------------------

Verse:X2
      DGBA
      DGA
      
Chorus:
      EABC#
      EABG
 Verse:(same as above)
[ Tab from: http://www.guitartabs.cc/tabs/n/navarro_lauren/my_song_tab.html ]
 Chorus:(same as above)
 Verse: x1
 Bridge: x2


   ------------------------------------
   ------------------------------------
   ----4------6-------8------9---------
   ----4------6-------8------9---------
   ----2------4-------6------7---------
   ------------------------------------

   Chorus: x1
   Verse: x1
  FADE ON G!!!!
Comments