Navaira Emilio - Juntos Chords & Tabs

 

Juntos Chords & Tabs

Navaira Emilio Chords & Tabs

Version: 1 Type: Tab 0 ratings
1 star 2 stars 3 stars 4 stars 5 stars
comments

Juntos Tab

   
Emilio Navaira
Juntos
Unsung Highways
1992

    ( )  Harmonics

      s    Slide 





(Intro)
            
           G                                                                                      C                                                               
E -------3----5---3--------------------------3-----5----3--------------------------------------------------------------
B ----3----------------3-----------------3-------------------3-------------------------1-----3------1------------------
G -0-----------------------0----------------------------------------0----------0-----------------------------0----------
D -------------------------------0---2-------------------------------------------------------------------------------2---
A -------------------------------------------------------------------------3----------------------------------------------
E -------------------------------------------------------------------------------------------------------------------------

      D                                                  
E -------------3-h2-----------------------|--------------------------------------------------------------------------------
B ---------3----------- 3------------------|--------------------------------------------------------------------------------
G -----2--------------------2----0--------|---------2-----4-----2-----------------------2-----4------2------------------
D -0---------------------------------------|---------0-----0-----0-----------------------0-----0------0------------------
A ----------------------------------------- |--------------------------------------------------------------------------------
E- -----------------------------------------|---3-------------------------3-------3----------------------------------------


(FIRST VERSE)

Acuerdas    en el altar,         cuando juramos             hasta el morir

E ----------------------------------------------------------1----1----------------------------------------------------------
B ------3---3------------------3----3---------------------3----3----------------------------0----0----0------------------
G ------2---2------------------2----2---------------------2----2-----2---------------------1----2----4------------------
D -------------------------------------------------------------------------------------------- 2----2----2------------------
A -------------------------------------------------------------------------------------------- 2----2----2------------------
E -3-----------------2---2-------------------1-----1----------------------------0----0------------------------------------


  Ya   ahora que estoy    muriendo                         y tengo miedo dejanos ir

E ---------------------- 2------------------------------------------------------------------------------------2---0---2------
B -----------1----------3---------------- 3------------------------ 0----------------1-----1----1----------3---3---3------
G -----------0----------------------------0-------------------------0----------------0-----0----0--------------------------
D -----------------0-------------------------------------------------------------------------------------0-------------------
A -----3------------------------------------------------------------------------3--------------------------------------------
E  ----------------------------------3---------------3---2----0--------------------------------------------------------------




Nuestro amor siempre sera y no me olvido de      aquel ayer


E ----------------------------------------------------------1----1----------------------------------------------------------
B ------3---3------------------3----3---------------------3----3----------------------------0----0----0------------------
G ------2---2------------------2----2---------------------2----2-----2---------------------1----2----4------------------
D -------------------------------------------------------------------------------------------- 2----2----2------------------
A -------------------------------------------------------------------------------------------- 2----2----2------------------
E -3-----------------2---2-------------------1-----1----------------------------0----0------------------------------------   

comprendo sigues    viviendo                                   sigue tu vida                te esperare


E --------------------- 2 --------------------------------------------------------------------------------2-------2--------
B ---------1-----------3---------------- 3  --------------------------0-----------------1-------------3---------2 -------
G ---------0-----------------------------0----------------------------0-----------------0-----------------------0- ------
D ---------------0-------------------------------------------------------------------------------0---------------0--------
A ----3--------------------------------------------------------------------------3-------------------------------2--------
E --------------------------------3-----------------3----2----0-------------------------------------------------3--------


(Chorus)

                                                     juntos 

E ----------------------------------------------------------------------------------------------------------------------
B ---1------3-------------------------------------1---- 3-----1---------------------1-----3-------1-----------------
G --------------------0--------------------------- 0----0----- 0---------------------0-----0------0-----------------
D ---------------------------------------------------------------------------------------------------------------------
A ---0------2-------------------------3----------------------------------3----3-------------------------------------
E ---------------------------------------------------------------------------------------------------------------------


siempre juntos                                                         alla en el cielo 

E -- -------------------------------------------------------------------------------2---2---2-------------- 2---- 2----2--
B ---------------------------------------------------------------------------------3---3---3---------------3----3----3-- 
G --------------------2---4---2----------------------2----4-----2-------------------------------------------------------
D --------------------0---0---0----------------------0----0-----0--------0-----------------0-----0--------------------
A ------------------------------------------------------------------------------------------------------------------------
E  ------------3------------------------3------3-------------------------------------------------------------------------


yo te he de ver

E ------------------------------------------------------------------------------------------------------------------------------
B -----------------------------------3-----3----3---3--------------------------------------3----------------------3----------
G -----------------------------------2---- 2----2---2-------------------------------------------0-----------------------0----
D ----------------------------------------------------------------------------------------------------------------------------0-
A ------------------------------------------------------------------------0----1-----2-----------------2-----1----------------
E ------------------3------3----------------------------------------------------------------------------------------------------



juntos
E ---------------------------------------------------------------------
B---------- 1---- 3-----1---------------------1-----3-------1-------
G --------- 0----0----- 0---------------------0-----0------0--------
D --------------------------------------------------------------------
A 3----------------------------------3----3------------------------- 
E --------------------------------------------------------------------



siempre juntos                                      vive tu vida sigues viviendo                    te esperare

E -- -------------------------------------------------------------------------------2---2---2---2---- 2------ 2----------
B ---------------------------------------------------------------------------------3---3---3----3----3---- -- 3----------- 
G --------------------2---4---2----------------------2----4-----2--------------------------------------------2-----------
D --------------------0---0---0----------------------0----0-----0--------0-----------------------------------0-----------
A ---------------------------------------------------------------------------------------------------------------------------
E  ------------3------------------------3------3-----------------------------------------------------------------------------





(Second verse)



E |-------------------------------------------------------------------------------
B |-------------------------------------------------------------------------------- 
G |---------2-----4-----2-----------------------2-----4------2------------------
D |---------0-----0-----0-----------------------0-----0------0------------------
A |--------------------------------------------------------------------------------
E  |---3-------------------------3-------3----------------------------------------



(Guitar 1)

    Ya ahora no tengo miedo solo te pido que seas feliz
    
    E ----------------------------------------------------------1----1----------------------------------------------------------
    B ------3---3------------------3----3---------------------3----3----------------------------0----0----0------------------
    G ------2---2------------------2----2---------------------2----2-----2---------------------1----2----4------------------
    D -------------------------------------------------------------------------------------------- 2----2----2------------------
    A -------------------------------------------------------------------------------------------- 2----2----2------------------
    E -3-----------------2---2-------------------1-----1----------------------------0----0------------------------------------







(Guitar 2)
[ Tab from: http://www.guitartabs.cc/tabs/n/navaira_emilio/juntos_tab.html ]
E -------------------------------------------------------------------------------------------------------------------------
B -------------3 h 5-----------3 h 5-------------------------------------------------------------------------------------
G -------------------------------------------------------------------------------------------------------------------------
D ------------------------------------------------------------------------------------------------------------------------- 
A -------------------------------------------------------------------------------------------------------------------------
E -------------------------------------------------------------------------------------------------------------------------


(Guitar 1)


Acuerdas           en el     altar                              cuando juramos hasta el morir
E ---------------------- 2------------------------------------------------------------------------------------2---0---2------
B -----------1----------3---------------- 3------------------------ 0----------------1-----1----1----------3---3---3------
G -----------0----------------------------0-------------------------0----------------0-----0----0--------------------------
D -----------------0-------------------------------------------------------------------------------------0-------------------
A -----3------------------------------------------------------------------------3--------------------------------------------
E  ----------------------------------3---------------3---2----0--------------------------------------------------------------



(Guitar 2)  (Played directly after the 1st guitar hits the D) 
 

E -2-h-3-h 5-p 3 p 2--------------------------
B ---------------------------1-h-3-p-1-p-0-----
G-------------------------------------------------
D ------------------------------------------------
A -------------------------------------------------
E ---------------------------------------------------



(Guitar 1) 


comprendo sigues    viviendo                                   sigue tu vida                te esperare

E --------------------- 2 --------------------------------------------------------------------------------2-------2--------
B ---------1-----------3---------------- 3  --------------------------0-----------------1-------------3---------2 -------
G ---------0-----------------------------0----------------------------0-----------------0-----------------------0- ------
D ---------------0-------------------------------------------------------------------------------0---------------0--------
A ----3--------------------------------------------------------------------------3-------------------------------2--------
E --------------------------------3-----------------3----2----0-------------------------------------------------3--------









(Chorus)

                                                     juntos 

E ----------------------------------------------------------------------------------------------------------------------
B ---1------3-------------------------------------1---- 3-----1---------------------1-----3-------1-----------------
G --------------------0--------------------------- 0----0----- 0---------------------0-----0------0-----------------
D ---------------------------------------------------------------------------------------------------------------------
A ---0------2-------------------------3----------------------------------3----3-------------------------------------
E ---------------------------------------------------------------------------------------------------------------------



siempre juntos                                                         alla en el cielo 

E -- -------------------------------------------------------------------------------2---2---2-------------- 2---- 2----2--
B ---------------------------------------------------------------------------------3---3---3---------------3----3----3-- 
G --------------------2---4---2----------------------2----4-----2-------------------------------------------------------
D --------------------0---0---0----------------------0----0-----0--------0-----------------0-----0--------------------
A ------------------------------------------------------------------------------------------------------------------------
E  ------------3------------------------3------3-------------------------------------------------------------------------


yo te he de ver

E ------------------------------------------------------------------------------------------------------------------------------
B -----------------------------------3-----3----3---3--------------------------------------3----------------------3----------
G -----------------------------------2---- 2----2---2-------------------------------------------0-----------------------0----
D ----------------------------------------------------------------------------------------------------------------------------0-
A ------------------------------------------------------------------------0----1-----2-----------------2-----1----------------
E ------------------3------3----------------------------------------------------------------------------------------------------


juntos
E ---------------------------------------------------------------------
B---------- 1---- 3-----1---------------------1-----3-------1-------
G --------- 0----0----- 0---------------------0-----0------0--------
D --------------------------------------------------------------------
A 3----------------------------------3----3------------------------- 
E --------------------------------------------------------------------



siempre juntos                                      vive tu            vida sigues viviendo                    

E -- -------------------------------------------------------------------------------2---2---2---2---- 2------ 2----------
B ---------------------------------------------------------------------------------3---3---3----3----3---- -- 3----------- 
G --------------------2---4---2----------------------2----4-----2-------------------------------------------------------
D --------------------0---0---0----------------------0----0-----0--------0----------------------------------------------
A ---------------------------------------------------------------------------------------------------------------------------
E  ------------3------------------------3------3-----------------------------------------------------------------------------





te esperare

E -------------2-------------------------------------------------------(12)---------------------------
B -------------2------------------------------------------(12)----------------------------------------
G -------------0--------------------------------(12)--------------------------------------------------
D -------------0---------------------------------------------------------------------------------------
A -------------2---------------------------------------------------------------------------------------
E -------------3-------3------2-----0-----------------------------------------------------------------

vive tu            vida                            sigues viviendo               te esperare     

E ---------------------------------------------------------------------------2--------------------------
B ------------------------------1---1---1---1------------------------------3--------------------------
G ------------------------------0---0---0---0------------------------------2--------------------------
D ---------------------------------------------------------------------------0--------------------------
A -----------------3------------------------------------------------------------------------------------
E -------------------------------------------------------------------------------------------------------






(Guitar 1)


E -------3----5---3--------------------------3-----5----3--------------------------------------------------------------
B ----3----------------3-----------------3-------------------3-------------------------1-----3------1------------------
G -0-----------------------0----------------------------------------0----------0-----------------------------0----------
D -------------------------------0---2-------------------------------------------------------------------------------2---
A -------------------------------------------------------------------------3----------------------------------------------
E -------------------------------------------------------------------------------------------------------------------------


E -------------3-h2-----------------------|
B ---------3----------- 3------------------|
G -----2--------------------2----0--------|
D -0---------------------------------------|
A ----------------------------------------- |
E- -----------------------------------------|
















---------------------------------------------------------------------------------------------------------------------------------
(Both guitars play a t the same time)



(Guitar 1)

E -------3----5---3--------------------------3-----5----3--------------------------------------2----2-----2-----------2----
B ----3----------------3-----------------3-------------------3-------------1----1----1-------- 3----3-----3-----------2----
G -0-----------------------0----------------------------------------0------ 0----0----0-------- 2----2-----2-----------0----
D -------------------------------0---2--------------------------------------2----2----2---------0----0-----0-----------0---
A ---------------------------------------------------------------------------3----3----3----------------------------------2---
E --------------------------------------------------------------------------------------------------------------------------3---



(Guitar 2)

E --- 7-------------------------------------------------------------------------------------------------------------------------
B -----------------8----8-h-10----8---8----7----8------------8-h-10--8---5----s--7--s-8------7---s---8--s -10- s--12
G ---7-----7----------------------------------------------7--------------------------------------------------------------------
D ------------------------------------------------------------------------------------------------------------------------------
A ------------------------------------------------------------------------------3----s--5--s-7------5---s---7--s---9---s-10
E -------------------------------------------------------------------------------------------------------------------------------


(Guitar 1)

E ------------------------------2------------
B ------------------------------2------------
G ---------2-----0-------------0------------
D ------------------------------0------------
A ------------------------------2------------
E ----3-------------------------3------------


(Guitar 2)


E --------------------------------2------------
B --------------------------------2------------
G --------------------------------0------------
D --------------------------------0------------
A --------------------------------2------------ 
E ---3----------------------------3-------------

Comments