National Anthems - Star Spangled Banner Chords & Tabs

 

Star Spangled Banner Chords & Tabs

National Anthems Chords & Tabs

Version: 1 Type: Tab 4 ratings
1 star 2 stars 3 stars 4 stars 5 stars
comments

Star Spangled Banner Tab

   
Star Spangled Banner
Tab By: bcrichplayer008

Standard Tuning   ( E A D G B E )


E | ----------------------------------------------------------------
B | ----------------------------------------------------------------
G | --0----------0-5--9-7-5---------0-0-9-7-5-4-2-4-5-5-------------
D | -----2----2-------------2-4-5--------------------------5-2------
A | --------3---------------------------------------------------3---
E | ----------------------------------------------------------------


E | ----------------------------------------------------------------
B | ----------------------------------------------------------------
G | --0----------0-5--9-7-5---------0-0-9-7-5-4-2-4-5-5-------------
D | -----2----2-------------2-4-5--------------------------5-2------
A | --------3---------------------------------------------------3---
E | ----------------------------------------------------------------

[ Tab from: http://www.guitartabs.cc/tabs/n/national_anthems/star_spangled_banner_tab.html ]
E | ----------------------------------------
B | ----------------------------------------
G | --9-9-9-10-12-12---10-9-7-9-10-10-------
D | ----------------------------------------
A | ----------------------------------------
E | ----------------------------------------


E | ----------------------------------------
B | ----------------------------------------
G | -10-9--7-5-4--2-4-5--5------------------
D | --------------------------2-4-5---------
A | ----------------------------------------
E | ----------------------------------------



E | ----------------------------------------
B | ----------------------------------------
G | --0-5-5-5-4-2-2-2--7-9-10-9-7-5---4-----
D | ----------------------------------------
A | ----------------------------------------
E | ----------------------------------------


E | ----------------------------------------
B | ----------------------------------------
G | -0-0-5--7-9-10-12---5-7-9--10-7--5------
D | ----------------------------------------
A | ----------------------------------------
E | ----------------------------------------
Comments