Natalie Imbruglia - Torn Chords & Tabs

 

Torn Chords & Tabs

Natalie Imbruglia Chords & Tabs

Version: 2 Type: Bass Tab 0 ratings
1 star 2 stars 3 stars 4 stars 5 stars
comments

Torn Bass Tab

ATTENTION !!!! This tabulature complies only with the acoustic guitar version of
the song.

Intro (in the acoustic version intro DOES contain bass)
Verse 1

G|--------------------------------------------------|
D|--------------------------------------------------|
A|--------------------------------------------------|
E|-0--------4--------5------------------------------| (x)2
  (x)14    (x14)    (x14)

Bridge

G|--------------------------------------------------------------|
D|--------------------------------------------------------------|
A|-----4-4-4-4-4-4-4--------------------------------------------|
E|-------------------7-7-7-7-7-7-7--4-4-4-4-4-4-4--7-7-7-7-7-7-7|

Chorus:
G|-----------------------------------------------------------|
D|-----------------------------------------------------------|
A|-----------------------------------------------------------|
E|-0-0-0-0-0-0-0--7-7-7-7-7-7-7--9-9-9-9-9-9-9--5-5-5-5-5-5-5| (x3)

Verse 2
[ Tab from: http://www.guitartabs.cc/tabs/n/natalie_imbruglia/torn_btab_ver_2.html ]
G|--------------------------------------------------|
D|--------------------------------------------------|
A|--------------------------------------------------|
E|-0--------4--------5------------------------------| (x)2
  (x)14    (x14)    (x14)

Bridge

G|--------------------------------------------------------------|
D|--------------------------------------------------------------|
A|-----4-4-4-4-4-4-4--------------------------------------------|
E|-------------------7-7-7-7-7-7-7--4-4-4-4-4-4-4--7-7-7-7-7-7-7|

Chorus:
G|-----------------------------------------------------------|
D|-----------------------------------------------------------|
A|-----------------------------------------------------------|
E|-0-0-0-0-0-0-0--7-7-7-7-7-7-7--9-9-9-9-9-9-9--5-5-5-5-5-5-5| (x3)


Repeat Bridge and Chorus double times after the second verse

End of the song!!!

The last time you play the Chorus hit the 5th fret 5 times and then empty E
string... 


G|-----------------------------------------|
D|-----------------------------------------|
A|-----------------------------------------|
E|--5-5-5-5-5---0--------------------------|

I am not saying that the tabs are 100% correct but I've been playing it with my
band for quite a long time and everything was/is OK.
Enjoy it.

any comments, suggestions, insults? shogun@kn.home.pl
Comments