Natalie Imbruglia - Talk In Tongues Chords & Tabs

 

Talk In Tongues Chords & Tabs

Natalie Imbruglia Chords & Tabs

Version: 1 Type: Tab 0 ratings
1 star 2 stars 3 stars 4 stars 5 stars
comments

Talk In Tongues Tab

   
#-----------------------------PLEASE NOTE-------------------------------------#
#     This file is the author's own work and represents their interpretation  #
#of the song. You may only use this file for private study, scholarship, or   #
#research. Remember to view this file in Courier, or some other monospaced    #
#font.                                                                        #
#-----------------------------------------------------------------------------#

"Talk in tongues" by Natalie Imbruglia
>From the album "White Lilies Island"
Tabbed by Dado2
Thanks to Fabiano Nunes  for corrections

/ = slide up
[...] = keep playing with many strokes

The whole song is played with bass picking.

Intro:

   Am           B7        Em            G          Am     B7
e|-0-----0------2-2---0-|-----0---------3--------|-0------2-|
B|-1-----1------0-0---0-|-----0---------0--------|-1------0-|
G|-2-----2------2-2---0-|-----0---------0--------|-2------2-|
D|-2-----2------1-1---2-|-----2---------0--------|-2------1-|
A|-0-----0-2----2-2---2-|-----2---------2------0-|-0---0--2-|
E|--------------------0-|-0---0--0-2-3--3--2-3---|----------|

Verse:

| Em | C | Em | C B | C B7 | A7 | B7 |

Chorus:

| Am B7 | Em G | Am B7 | C A/C# D B/Eb |
| Am B7 | Em G | F# | C A/C# D B/Eb |
[ Tab from: http://www.guitartabs.cc/tabs/n/natalie_imbruglia/talk_in_tongues_tab.html ]
    Em                       C2
e|-------------------------|-0-[...]-|
B|--0--0---0--0-0-0-0------|-3-[...]-|
G|--0--2/4-2--2-2-2-0-0-0--|-0-[...]-|
D|--2------0--0-0-0-0-2-0--|-2-[...]-|
A|--2----------------------|-3-[...]-|
E|--0----------------------|---------|

Repeat verse and chorus.

Bridge:

| G | D/F# | Am (D) C | x2
| B7 | B7 | B7 |
* play the (D) in a short while changing to C

Repeat chorus.

Outro:

    Em                       C2         Em                       C2
e|-------------------------|-0-[...]-|-------------------------|-----0--|
B|--0--0---0--0-0-0-0------|-3-[...]-|--0--0---0--0-0-0-0------|----3---|
G|--0--2/4-2--2-2-2-0-0-0--|-0-[...]-|--0--2/4-2--2-2-2-0-0-0--|---0----|
D|--2------0--0-0-0-0-2-0--|-2-[...]-|--2------0--0-0-0-0-2-0--|--2-----|
A|--2----------------------|-3-[...]-|--2----------------------|-3------|
E|--0----------------------|---------|--0----------------------|--------|

Chords needed:

  Am   B7   Em   G    C    A7   A/C# D    B/Eb F#   C2   D/F#
e-0----2----0----3----0----0----0----2----7----2----0----2-
B-1----0----0----0----1----2----2----3----4----2----3----3-
G-2----2----0----0----0----0----2----2----4----3----0----2-
D-2----1----2----0----2----2----2----0----4----4----2----0-
A-0----2----2----2----3----0----4----x----6----4----3----0-
E-x----x----0----3----x----x----x----x----x----2----x----2-

For any comments, questions or threats e-mail me at:
dado2_714@yahoo.it
______________________________________
Added by Mikhailo
Comments