Nas - Affirmative Action Chords & Tabs

 

Affirmative Action Chords & Tabs

Nas Chords & Tabs

Version: 1 Type: Tab 0 ratings
1 star 2 stars 3 stars 4 stars 5 stars
comments

Affirmative Action Tab

-------------------------------------------------------------------------------
			     Affirmative action - Nas
-------------------------------------------------------------------------------
Tabbed by:Dexzer
Email:Dexzer@aol.com

Tuning:Standard
[ Tab from: http://www.guitartabs.cc/tabs/n/nas/affirmative_action_tab.html ]
   Intro 3x......................then
 |                              |
e|------------------------------|----------------------------------|
B|-------------9-9--------------|----------------------------------|
G|---------8--------8-----------|-------8-10-11-10-8---------------|
D|--6--9---------------9--6-----|----8-----------------------------|
A|---------------------------6--|-9--------------------------------|
E|------------------------------|----------------------------------|

e|-----------------------------------------------------------------|..Repeat
B|-------------9-9-------------------------------------------------|  through
G|---------8--------8------------------8-10-11-10-8----------------|  song
D|--6--9---------------9--6---------8------------------------------|
A|---------------------------6---9---------------------------------|
E|-----------------------------------------------------------------|
Comments