Narnia - Falling From The Throne Chords & Tabs

 

Falling From The Throne Chords & Tabs

Narnia Chords & Tabs

Version: 1 Type: Tab 0 ratings
1 star 2 stars 3 stars 4 stars 5 stars
comments

Falling From The Throne Tab

Tuned Down 1/2 Step

   gtr.1                                                  x4
e|--------------------------------------------------------|
B|--------------------------------------------------------|
G|--------------------------------------------------------|
D|--------------------------------------------------------|
A|-----7-6-7---9-7-9---10-9-10------7-6-7---9-7-9---5-4-5-|
E|-0-0-------0-------0----------0-0-------0-------0-------|

   gtr.2
e|------------------------------------------------------|
B|-15b~--r15p12-------------------------12~-------15-12-|
G|--------------14~-12-14b-12-----------12~-12-14-------|
D|----------------------------14~-12h14-----------------|
A|------------------------------------------------------|
E|------------------------------------------------------|

[ Tab from: http://www.guitartabs.cc/tabs/n/narnia/falling_from_the_throne_tab.html ]
-|-15-15b-15-17-15-14h15p14-12h14----12-----------------------|
-|--------------------------------15----15b-15b-r15p12--------|
-|-----------------------------------------------------14b-14-|
-|------------------------------------------------------------|
-|------------------------------------------------------------|
-|------------------------------------------------------------|


-|-------------------|
-|---------------12\-|
-|-12-14b-12-----12\-|
-|-----------14~-----|
-|-------------------|
-|-------------------|


e|-------------------------------------|
B|-------------------------------------|
G|-------------------------------9-8-7-|
D|-------------------------------9-8-7-|
A|-------------------------------7-6-5-|
E|-0--3p0-0-0-0-3~-0-0-3p0-0-000-------|
pm          .      . .       ...


e|---------------|
B|-3-5--1-3--0-0-|
G|-4-5--2-2--5-4-|
D|-4-5--2-0--3-3-|
A|-2-3--0-0--2-2-|
E|---------------|
not sure bout this part
but if you dont like that you can play this instead
e|----------------------------|
B|----------------------------|
G|-11~-12~--------------------|
D|----------14~-15~--14~-13~--|
A|----------------------------|
E|----------------------------|

aaand thats as far as i got...
Comments