Nappy Roots - Ho Down Chords & Tabs

 

Ho Down Chords & Tabs

Nappy Roots Chords & Tabs

Version: 1 Type: Chords 0 ratings
1 star 2 stars 3 stars 4 stars 5 stars
comments

Ho Down Chords

   

Artist-Nappy Roots
Song-HO DOWN
 Tabber-FUNK TRAVELER

   A   C    D

e|-0---0----2----|
b|-2---1----3----|
g|-2---0----2----|
d|-2---2----0----|
a|-0---3---------|
e|---------------|
[ Tab from: http://www.guitartabs.cc/tabs/n/nappy_roots/ho_down_crd.html ]
   A  C   D
e|------------|
b|------------|
g|----5---7---|
d|-7--5---7---|
a|-7--3---5---|
e|-5----------|

   A   C    D
e|--------------|
b|--------------|
g|--------------|
d|-7---10---0---|
a|-7---10---0---|
d|-7---10---0---|

Juz mess round with these chords.
Comments