Napalm Death - The Lifeless Alarm Chords & Tabs

 

The Lifeless Alarm Chords & Tabs

Napalm Death Chords & Tabs

Version: 2 Type: Tab 0 ratings
1 star 2 stars 3 stars 4 stars 5 stars
comments

The Lifeless Alarm Tab

   
Album: Inside The Torn Apart (1997)

NOTES:

h - hammer on              p - pull off
v - vibrato                b - bend string
^ - pinch harmonics        p.m. - palm mute
x - muted note             t - right hand tap
/ - slide up               \ - slide down
{}-special notes

Tuning:
1-c#
2-g
3-e
4-B
5-F#
6-c#

Riff 1 (x4)
-|----------|
-|----------|
-|----------|
-|----------|
-|-6--------|
-|-0--------|
[ Tab from: http://www.guitartabs.cc/tabs/n/napalm_death/the_lifeless_alarm_tab_ver_2.html ]
Riff 2 (x2)
-|-------|---------------|
-|-------|---------------|
-|-------|---------------|
-|---3-3-|---3-3---2--1--|
-|-------|---------------|
-|-2-----|-2-------------|
 |       |               |
-|-------|---------------|
-|-------|---------------|
-|-------|---------------|
-|-3-----|-3-------2--1--|
-|-------|---------------|
-|-2-----|-2-------------|

Riff 3 (x4)
-|-------|
-|-------|
-|-------|
-|--1-1--|
-|-------|
-|-0-----|
 |       |
-|-------|
-|-------|
-|-------|
-|-------|
-|-6-----|
-|-0-----|

Riff 4 (x4)
-|---------------------------------|---------------------------------|
-|---0-----0-----0---0-----0-----0-|---------------------------------|
-|-----2-----2---------2-----2-----|---0-----0-----0---0-----0-----0-|
-|-------3-----3---------3-----3---|-----4-----4---------4-----4-----|
-|-1---------------1---------------|-------5-----5---------5-----5---|
-|---------------------------------|-3---------------3---------------|

Play Riff 1 (x4)
Play Riff 2 (x2)
Play Riff 3 (x4)
Play Riff 4 (x4)
Play Riff 1 (x4)
Play Riff 2 (x2)
Play Riff 3 (x4)
Play Riff 2 (x2)
Play Riff 3 (x4)
Play Riff 4 (x4)
Play Riff 1 (x5)

END OF SONG
Comments