Napalm Death - Suffer The Children Chords & Tabs

 

Suffer The Children Chords & Tabs

Napalm Death Chords & Tabs

Version: 1 Type: Tab 0 ratings
1 star 2 stars 3 stars 4 stars 5 stars
comments

Suffer The Children Tab

   
Napalm Death
Suffer The Children 


[Riff A]
|-----------------------------|----------------------------|
|-----------------------------|----------------------------|
|*----------------------------|---------------------------*|
|*---------------3------------|-6-------------3--4--------*|
|--3-------------1------------|-4-------------1--2--6--5---|
|--1--0-0-0-0-0-----0-0-0-0-0-|----0-0-0-0-0--------4--3---|
    
|-----------------------------|----------------------------|
|-----------------------------|----------------------------|
|*----------------------------|---------------------------*|
|*---------------3------------|-6-------------9--8--------*|
|--3-------------1------------|-4-------------7--6--5--6---|
|--1--0-0-0-0-0-----0-0-0-0-0-|----0-0-0-0-0--------3--4---|

[Riff B]
|---------------------------------|------------------------------|
|---------------------------------|------------------------------|
|---------------------------------|------------------------------|
|---------------------------------|------------------------------|
|--3------------------------------|-3---------------5--6--5--6---|
|--1--0-0-0-0-0-0-0-0-0-0-0-0-0-0-|-1--0-0-0-0-0-0--3--4--3--4---|
  
|---------------------------------|------------------------------|
|---------------------------------|------------------------------|
|---------------------------------|------------------------------|
|---------------------------------|------------------------------|
|--3------------------------------|-3---------------6--5--6--5---|
|--1--0-0-0-0-0-0-0-0-0-0-0-0-0-0-|-1--0-0-0-0-0-0--4--3--4--3---|
      
[Riff C]
|--------------------------|----------------------------|
|--------------------------|----------------------------|
|*-------------------------|----------------------------|
|*---------6----6----------|------9---------------------|
|--2-------4----4--5/6-5/6-|-2----7----8----8--5/6-5/6--|
|--0----0----------3/4-3/4-|-0---------6----6--3/4-3/4--|

|--------------------------|----------------------------|
|--------------------------|----------------------------|
|--------------------------|----------------------------|
|----------6----6----------|------9---------------------|
|--2-------4----4--5/6-5/6-|-2----7----8----8--5/6-5/6--|
|--0----0----------3/4-3/4-|-0---------6----6--3/4-3/4--|

[Riff C.1]
|---------------------------|---------------------------------|
|---------------------------|---------------------------------|
|---------------------------|---------------------------------|
|---------------------------|---------------------------------| repeat
|-----------4"--------------|----------7"---------------------|
|--0"----1"---------3h4p3h4-|-0"----1"--------6"-----3h4p3h4--|

|------------------------|------------------------|
|------------------------|------------------------|
|------------------------|------------------------|
|------------6-----------|-----------6------------|
|--2----3----4----5/6----|-2----3----4----5/6-----|
|--0----1---------3/4----|-0----1---------3/4-----|
                   

[Riff D]
|------------------------|------------------------|
|------------------------|------------------------|
|------------------------|------------------------|
|------------6-----------|-----------6------------|
|--2----3----4----5/6----|-2----3----4----5/6-----|
|--0----1---------3/4----|-0----1---------3/4-----|

[Riff E]
|--------------------------------|--------------------------------|
|--------------------------------|--------------------------------|
|--------------------------------|--------------------------------|
|-----------------------8"-------|--------------------------------|
|--2"-------6"-5"----------------|-2"------6"--5"-----------------|
|--------------------------------|----------------------4"--------|
[ Tab from: http://www.guitartabs.cc/tabs/n/napalm_death/suffer_the_children_tab.html ]
|--------------------------------|--------------------------------|
|--------------------------------|--------------------------------|
|--------------------------------|--------------------------------|
|-----------------------8"-------|--------------------------------|
|--2"-------6"-5"----------------|-2"------6"--5"-----------------|
|--------------------------------|----------------------4"--------|


[Riff F]
|--------------------------------|--------------------------------|
|--------------------------------|--------------------------------|
|--------------------------------|--------------------------------|
|--------------------------------|--------------------------------|
|---------------7"---------------|--------------8"------7"--------|
|--6"------4"--------------------|-6"------4"---------------------|

|--------------------------------|--------------------------------|
|--------------------------------|--------------------------------|
|--------------------------------|--------------------------------|
|--------------------------------|--------------------------------|
|---------------7"---------------|--------------8"------7"--------|
|--6"------4"--------------------|-6"------4"---------------------|

[Fill 1]
|----------------|-----------------|
|----------------|-----------------|
|----------------|-----------------|
|----------------|-----------------|
|--2-------------|-(2)-------------|
|--0-------------|-(0)-------------|

|----------------------|-------------------------|
|----------------------|-------------------------|
|----------------------|-------------------------|
|--------------3-------|-------------------------|
|--------------1-------|-------------5/6--3------|
|--0--0--0--0----------|-0--0--0--0--3/4--1------|

|----------------------|-------------------------|
|----------------------|-------------------------|
|----------------------|-------------------------|
|--------------3-------|-------------------------|
|--------------1-------|----2--------4\3--4------|
|--0--0--0--0----------|-0--0-----0--2\1--2------|

[Riff G]
|----------------------|-------------------------|
|----------------------|-------------------------|
|----------------------|-------------------------|
|--------------3-------|-------------------------|
|--------------1-------|-------------5/6--3------|
|--0--0--0--0----------|-0--0--0--0--3/4--1------|

|----------------------|-------------------------|
|----------------------|-------------------------|
|----------------------|-------------------------|
|--------------3-------|-------------------------|
|--------------1-------|----2--------4\3--4------|
|--0--0--0--0----------|-0--0-----0--2\1--2------|

[Riff G.1]
|-----------------------------------|------------------------------------|
|-----------------------------------|------------------------------------|
|-----------------------------------|------------------------------------|
|--------------3------4------5------|-------------3------4------6--------|
|--------------1------2------3------|-------------1------2------4--------|
|--0--0--0--0-------------------3hb-|-0--0--0--0--------------------3hb--|
   
|-----------------------------------|------------------------------------|
|-----------------------------------|------------------------------------|
|-----------------------------------|------------------------------------|
|--------------3------4------5------|-------------3------4------6--------|
|--------------1------2------3------|-------------1------2------4--------|
|--0--0--0--0-------------------3hb-|-0--0--0--0--------------------3hb--|

[Riff guitar II]
|-----------------------------------|------------------------------------|
|-----------------------------------|------------------------------------|
|-----------------------------------|------------------------------------|
|--------------3------4------5------|-------------3------4------6--------|
|--------------1------2------3------|-------------1------2------4--------|
|--0--0--0--0-------------------3hb-|-0--0--0--0--------------------3hb--|
 
|-----------------------------------|------------------------------------|
|-----------------------------------|------------------------------------|
|-----------------------------------|------------------------------------|
|-----------------------------------|------------------------------------|
|--2--------------------------------|-(2)--------------------------------|
|--0--------------------------------|-(0)--------------------------------|

comments, hate mail, death threats to -
clangerfreak@hotmail.com
~*jinxx*~
Comments