Napalm Death - Next Of Kin To Chaos Chords & Tabs

 

Next Of Kin To Chaos Chords & Tabs

Napalm Death Chords & Tabs

Version: 1 Type: Tab 0 ratings
1 star 2 stars 3 stars 4 stars 5 stars
comments

Next Of Kin To Chaos Tab

   
Band:  Napalm Death
Album: Words From the Exit wound
Song:  Next Of Kin To Chaos

Copyright (c)  Nuclear Blast 1998
Version 1.0 - December 14th

Transcribed By: Blake
Email:          Dvsthrashmetal@hotmail.com

This is my second tab. Either this isnt as hard as i thought or my tabs suck
ass.

NOTE: Riff 5 is quietly played with Riff 4 listen to the cd i almost 
missed it

Tunning E B G D A E

Riff 1
|-------------------------------------------------------------------|
|-------------------------------------------------------------------|
|-------------------------------------------------------------------|
|-------------------------------------------------------------------|
|-3-3-3-3-3-8\7\6---------------------------------------------------|
|-------------------------------------------------------------------|

Riff 2
|-------------------------------------------------------------------|
|-------------------------------------------------------------------|
|-------------------------------------------------------------------|
|-------------------------------------------------------------------|
|-----------5-4-4-4-4-4-3-3-3-3-3-4-4-------------------------------|
|-7-7-7-7-7---------------------------------------------------------|

Riff 3
|-------------------------------------------------------------------|
|-------------------------------------------------------------------|
|-------------------------------------------------------------------|
|-------------------------------------------------------------------|
|-4-5-4-4-3-4-5-4-4-3-4-5-4-4-3-4-5-4-4-3--9--8--9--8---------------|
|-------------------------------------------------------------------|
[ Tab from: http://www.guitartabs.cc/tabs/n/napalm_death/next_of_kin_to_chaos_tab.html ]
Riff 4
|-------------------------------------------------------------------|
|-------------------------------------------------------------------|
|-------------------------------------------------------------------|
|-------------------------------------------------------------------|
|-00011-0011-0011/12/13---------------------------------------------|
|-------------------------------------------------------------------|

Riff 5 
|-------------------------------------------------------------------|
|-------------------------------------------------------------------|
|-------------------------------------------------------------------|
|-------------------------------------------------------------------|
|-3-3-3-3-3-5-5-6-6-6-6---------------------------------------------|
|-------------------------------------------------------------------|

Riff 6
|-------------------------------------------------------------------|
|-------------------------------------------------------------------|
|-------------------------------------------------------------------|
|-------------------------------------------------------------------|
|-9--8--9--8--11--10--11--10----------------------------------------|
|-------------------------------------------------------------------|

Riff 7
|-------------------------------------------------------------------|
|-------------------------------------------------------------------|
|-------------------------------------------------------------------|
|-------------------------------------------------------------------|
|-5-5-5-5-6-6-------6-6-6-5-5-5-5-----------------------------------|
|-------------10-10-------------------------------------------------|


Order:
Riff 1
Riff 2
Riff 1
Riff 2
Riff 3
Riff 4, Riff 5
Riff 5
Riff 4, Riff 5
Riff 5
Riff 4, Riff 5
Riff 5
Riff 4, Riff 5
Riff 5
Riff 6
Riff 1 x6
Riff 2 x2
Riff 3 x2
Riff 4 x4
Riff 5 x3
Riff 7 x2 or 3


Comments