Napalm Death - Instinct Of Survival Chords & Tabs

 

Instinct Of Survival Chords & Tabs

Napalm Death Chords & Tabs

Version: 1 Type: Tab 0 ratings
1 star 2 stars 3 stars 4 stars 5 stars
comments

Instinct Of Survival Tab

Intro Riff (x4)
D-----------------------------------|
A-----------------------------------|
F-----------------------------------|
C-----------------------------------|
G--44444444-5-5-6~~-44444444-6-6-5~-|
D--22222222-3-3-4~~-22222222-4-4-3~-|

Riff 1 (x3)
D-----------------------|
A-----------------------|
F-----------------------|
C-----------------------|
G--4-4-4-4-6--4-6--4-6--|
D--2-2-2-2-4--2-4--2-4--|

Riff 2 (x1)
D-----------------------|
A-----------------------|
F-----------------------|
C-----------------------|
G--4-4-4-4-4-6--5~~~~~--|
D--2-2-2-2-2-4--3~~~~~--|

Riff 3 (x3)
D-----------------------|
A-----------------------|
F-----------------------|
C-----------------------|
G--4-4-4-4-5-6-5-6-5-6--|
D--2-2-2-2-3-4-3-4-3-4--|
[ Tab from: http://www.guitartabs.cc/tabs/n/napalm_death/instinct_of_survival_tab.html ]
Riff 4 (x1)
D-----------------------|
A-----------------------|
F-----------------------|
C-----------------------|
G--4-4-4-4-5-4--6~~~~~--|
D--2-2-2-2-3-2--4~~~~~--|

Main Riff (x4)
D-----------------------|
A-----------------------|
F-----------------------|
C-----------------------|
G--4444-5~6~-4444-5~6~--|
D--2222-3~4~-2222-3~4~--|

Chorus Riff (x2)
D-----------------------|
A-----------------------|
F-----------------------|
C-----------------------|
G--4444-6~6~-4444-6~6~--|
D--2222-4~4~-2222-4~4~--|

Main Riff (x4)
Chorus Riff (x2)
Riff 1 (x3)
Riff 2 (x1)
Riff 3 (x3)
Riff 4 (x1)

Outtro Riff (x9)
D-----------------------------------|
A-----------------------------------|
F-----------------------------------|
C-----------------------------------|
G--4444-5~~444-5-5--4444-5~~6-5~~~--|
D--2222-3~~222-3-3--2222-3~~4-3~~~--|

stuff:
/=Slide up
\=Slide down
^=Hammer
Comments