Napalm Death - In Regress Chords & Tabs

 

In Regress Chords & Tabs

Napalm Death Chords & Tabs

Version: 1 Type: Tab 0 ratings
1 star 2 stars 3 stars 4 stars 5 stars
comments

In Regress Tab

NAPALM DEATH-Birth In Regress


intro
|-------------|
|-------------|
|-------------|
|-8888x-------|gtr 1
|-0000x-------|
|-6666x-------|
|
|-------------|
|-------------|
|-------------|
|-------------|gtr 2
|-8888x-8x-x8-|
|-6666x-6x-x6-|


riff 1
|-----------------|
|-----------------|
|-----------------|
|-8888x------8888-|gtr 1
|-0000x-----------|
|-6666x-6666------|
|
|-----------------|
|-----------------|
|-----------------|
|-----------------|gtr 2
|-8888x-8x-x8-----|
|-6666x-6x-x6-----|


riff 2a
|-----------|
|-----------|
|-----------|
|-----8---8-|gtr 1&2
|-7-7-67576-|
|-5-5--535--|

riff 2b
|-----------|
|-----------|
|-----------|
|-----8---8-|gtr 1
|-7-7-67576-|
|-5-5--535--|
|
|-----------|
|-----------|
|-----------|
|-----------|gtr 2
|-----6---6-|
|-5\3--535--|


[ Tab from: http://www.guitartabs.cc/tabs/n/napalm_death/in_regress_tab.html ]
riff 3
|---------------------|
|---------------------|
|---3-33-2----3-3-2-2-|
|---3-33-2----3-3---2-|gtr 1&2
|-0-0-00-0--0-0-0---0-|
|---------------------|


riff 4
|------------|
|------------|
|------------|
|-8787---87--|gtr 1&2
|-----7----7-|
|------------|


riff 5
|---------------------|
|---------------------|
|---------------------|
|---8-787-----8-7---8-|gtr 1&2
|-0-------7-0-----0---|
|---------------------|


riff 6
|----|
|----|
|-9"-|
|-0"-|gtr 1
|-7"-|
|----|
                   x 3                             x 1
|------------------------------| |-------------------------|
|------------------------------| |-------------------------|
|-10p0-9p0-7p0-9p0-7p0-5p0-3p0-| |-5p0-7p0-5p0-9p0-7p0-3p0-|
|------------------------------| |-------------------------|gtr 2
|------------------------------| |-------------------------|
|------------------------------| |-------------------------|
Comments