Napalm Death - Greed Killing Chords & Tabs

 

Greed Killing Chords & Tabs

Napalm Death Chords & Tabs

Version: 1 Type: Tab 0 ratings
1 star 2 stars 3 stars 4 stars 5 stars
comments

Greed Killing Tab

Greed Killing 
Diatribes
Tune down a step and a half lower (minor third) 

Intro riff (dont be too obvious about the xs here)
-----------------------------------------------------
-----------------------------------------------------
-----------------------------------------------------
-----------------------------------------------------
--88x8x88x8x66x6x66x6--------------------------------
-----------------------------------------------------
Other guitar plays this
-----------------------------------------------------
-----------------------------------------------------
-----------------------------------------------------
-----------------------------------------------------
88888888888...---------------------------------------
-----------------------------------------------------

The wrong time, the wrong place...
-----------------------------------------------------
-----------------------------------------------------
-----------------------------------------------------
---------------------88x8x88x8-----------------------
-4-3-x-3-x-33-x-3-x--66x6x66x6-----------------------
-2-1-x-1-x-11-x-1-x----------------------------------

Not now then when
[ Tab from: http://www.guitartabs.cc/tabs/n/napalm_death/greed_killing_tab.html ]
-----------------------------------------------------
-----------------------------------------------------
-----------------------------------------------------
--------4-2-4-3--------------------------------------
-333666-2/1 2/1--------------------------------------
-111444----------------------------------------------

When WHEN?
-----------------------------------------------------
-----------------------------------------------------
-----------------------------------------------------
---44----77--4-3-4-3---------------------------------
33-22-66-55--2/1-2/1---------------------------------
11----44---------------------------------------------

Chorus:Existence is a steady flow...
-----------------------------------------------------
-----------------------------------------------------
-----------------------------------------------------
-----4-x-----7-x-10-----10---------------------------
33-x-2-x-66-x5-x-8--9-x-8----------------------------
11-x-----44-x-------7-x------------------------------

Ending
-----------------------------------------------------
-----------------------------------------------------
-----------------------------------------------------
-----------------------------------------------------
-88--------------------------------------------------
-----------------------------------------------------
Comments