Nancy Sinatra - Bang Bang Chords & Tabs

 

Bang Bang Chords & Tabs

Nancy Sinatra Chords & Tabs

Version: 4 Type: Tab 0 ratings
1 star 2 stars 3 stars 4 stars 5 stars
comments

Bang Bang Tab

   
KILL BILL-by Nancy Sinatra reritten by Will K.

cappo first fret

Note:This tab refers to the cappo as the end of the guitar. For example, a normal 1
is as a 0 because of the cappo. Also, any unspecified numbers in the below
paragraphs refer the large E-string. Lastly, the first chord on the third line
(244) of the solo is played exactly the same and is reffered to as chord A.
The chord B is the same but with an instead of down (442)

e--------------------------|
B-0------0-----------------|
G------0---2---0-----------|
D----2---------------------|
A--------------------------|
E--------------------------|

e--------------------------|
B----1-----1--0------------|
G---2----2------2----------|
D--2---2-------------------|
A-0------------------------|
E--------------------------|

e-------------------------------0----|
B-----------------------------0------|
G---4----5-4-2-1-0----------0--------|
D--4--4-------------------2----------|
A-2----2----------------2------------|
E---------------------0--------------|
[ Tab from: http://www.guitartabs.cc/tabs/n/nancy_sinatra/bang_bang_tab_ver_4.html ]
I was five and he was six (Am)
we rode on horse's made of sticks (Em)
He wore black and I wore white (Am)
he would always win the fight (Em)

Bang Bang (2/1,0) he shot me down
Bang Bang (2/1,0) I hit the ground
Bang Bang (3,1,2) that awful sound
Bang Bang (1,0,Em)my baby shot me down    (solo)

Seasons came and changed (chord A) the time
(chord A) When I grew up I (chord A) called him mine(Am)
He would always laugh and say(3,2,1)
remember when we used to play

Bang Bang (2/1,0) I shot you down
Bang Bang (2/1,0) you hit the ground
Bang Bang (3,1,2) that awful sound
Bang Bang (1,0,Em) I used to shoot you down    (solo)

Music played and people sang(Am,Em)just for me the church bells rang (3xEm,Am,Em,D,Em,Am)

(2/1,0)Now he's gone I don't know why (chord A)
Until (chord A) this day (chord A) sometimes I cry (Am)
He didn't even say goodbye (chord B)
He (chord A) didn't take the time to lie

Bang Bang (2/1,0)he shot me down
Bang Bang (2/1,0)I hit the ground
Bang Bang (2,0,1)that awful sound
Bang Bang (1,0,Em)my baby shot me down    (solo)
Comments