Nancy Sinatra - Bang Bang Chords & Tabs

 

Bang Bang Chords & Tabs

Nancy Sinatra Chords & Tabs

Version: 3 Type: Tab 1 rating
1 star 2 stars 3 stars 4 stars 5 stars
comments

Bang Bang Tab

-----------------------------------------------------------------
			Nancy Sinatra - Bang Bang
	      Tabbed by DTMax - dtmax_@hotmail.com
-----------------------------------------------------------------


	INTRO
e|----------------1-----------0-----------------------1-|
B|-1------1-------2---2-1-----1-----2-1-------------1---|
G|------1---3-1---3--3----3---3---------3-1-0-----1-----|
D|----3-----------3-3---------2---2-------------3-------|
A|----------------------------3-3-------------3---------|
E|------------------------------------------------------|


	VERSE
e|------------------------------------------------0---------------|
B|----------------------------------------1-------1---------------|
G|----------------------------------------3-------0---------------|
D|----------------------------------------2-------2---------------|
A|----------------------------------------3-------3---------------|
E|----------------------------------------------------------------|
   I was five and he was six	We rode on horses made of sticks



e|---1-----------------------------------0----------------------------|
B|---2-----------------------------------1----------------------------|
G|---3-----------------------------------0----------------------------|
D|---3-----------------------------------2----------------------------|
A|---1-----------------------------------3----------------------------|
E|--------------------------------------------------------------------|
   He wore black and I wore white	He would always win the fight



	CHORUS
e|----------------------------------------------------------------|
B|----------------------------------------------------1-----------|
G|----------------------1----------------------------1------------|
D|---------------------3----------------------------3-------------|
A|--------------------3----------------------------3--------------|
E|-----------12/1-1-------------------------12/1-1----------------|
   Bang Bang	He shot me down     Bang Bang	I hit the Ground


e|--------------------------------------------------------------------|
B|--------------------2-----------------------------------------------|
G|-------------------3------------------------------------------------|
D|--------------------------------------------------------------------|
A|-----------4-3------------------------------------------------------|
E|------------------------------------------7-4-----------------------|
   Bang Bang	That awful sound    Bang Bang   My baby shot me down



e|----------------1-----------0-----------------------1-|
B|-1------1-------2---2-1-----1-----2-1-------------1---|
G|------1---3-1---3--3----3---3---------3-1-0-----1-----|
D|----3-----------3-3---------2---2-------------3-------|
A|----------------------------3-3-------------3---------|
E|------------------------------------------------------|
   Down


	VERSE 2
e|-----------------------------------------------------------------------|
B|-----------------------------------------------------------------------|
G|------------------------1---------------------1----------------1-------|
D|------------------3---------------------2--------------1---------------|
A|-----------------------------------------------------------------------|
E|-----------------------------------------------------------------------|
   Seasons came and changed the time	When I grew up I called him mine.


e|----------------------------------------------------------------------|
B|--2-----------------------------------------1-------------------------|
G|--3---------------------------------------1---------------------------|
D|--3-------------------------------------3-----------------------------|
A|--1--------------------------------4/3--------------------------------|
E|----------------------------------------------------------------------|
      He would always laugh and say	"Remember when we used to play?"


[ Tab from: http://www.guitartabs.cc/tabs/n/nancy_sinatra/bang_bang_tab_ver_3.html ]
	CHORUS 2
e|-------------------------1-------------------------------1------|
B|-----------------------1-------------------------------1--------|
G|---------------------1-------------------------------1----------|
D|-------------------3-------------------------------3------------|
A|-----------------3-------------------------------3--------------|
E|----------12/1-1--------------------------12/1-1----------------|
   Bang Bang    I shot you down	   Bang Bang   You hit the ground



e|-----------------------------------------------------------------|
B|-----------------------------------------------------1-----------|
G|-----------------3----------------------------------3------------|
D|---------------------------------------------------2-------------|
A|----------4/3-3-----------------------------------3--------------|
E|------------------------------------------7/4-4------------------|
   Bang Bang   That awful sound    Bang Bang   I used to shoot you


e|----------------1-----------0-----------------------1-|
B|-1------1-------2---2-1-----1-----2-1-------------1---|
G|------1---3-1---3--3----3---3---------3-1-0-----1-----|
D|----3-----------3-3---------2---2-------------3-------|
A|----------------------------3-3-------------3---------|
E|------------------------------------------------------|
   Down


	BRIDGE
e|---------------------------------1--1-------------------------------------|
B|---------------------------------2--0-------------------------------------|
G|---------------------------------3--3-------------------------------------|
D|---------------------------------3--3-------------------------------------|
A|--------------------------------------------------------------------------|
E|--------------------------------------------------------------------------|
    Music played and people sang.        Just for me the church bells rang


e|---------------------------0---0--------0-0-0---0--------------------------|
B|---1---1---1---3---1---3---1---1-----0--1-3-1---0--------------------------|
G|---0---0---0---0---0---0---0---0-----0------0---0--------------------------|
D|---2---2-------2---------------2----------------2--------------------------|
A|---------------------------------------------------------------------------|
E|--------------------------------------------------------------12/1-1-------|


	VERSE 3
e|--1---------------------------------------------------------------------|
B|--1----------------------------------1-------------1---------------1----|
G|--1-------------------------------1-----------1----------------1--------|
D|--3---------------------------3-----------2----------------1------------|
A|--3---------------------------------------------------------------------|
E|------------------------------------------------------------------------|
     Now hes gone I don't know why	And till this day sometimes I cry


e|-------------------------------------------------------------------|
B|--1-------------------------------------------------2--------------|
G|--0-----------------------------------------------3----------------|
D|--2---------------------------------------------3------------------|
A|--3-----------------------------------4/3-----1--------------------|
E|-------------------------------------------------------------------|
        He didn't even say goodbye    He didn't take the time to lie


	CHORUS 3
e|--------------------------1---------------------------1--------|
B|------------------------1----------------------------1---------|
G|----------------------1-----------------------------1----------|
D|--------------------3------------------------------3-----------|
A|------------------3-------------------------------3------------|
E|----------12/1-1---------------------------12/1-1--------------|
   Bang Bang    He shot me down    Bang Bang    I hit the ground


e|---------------------------------------------------------1------|
B|-------------------------1----------------------------2---------|
G|----------------------0----------------------------3------------|
D|-------------------2----------------------------3---------------|
A|----------4/3---3----------------------------1------------------|
E|----------------------------------------------------------------|
   Bang Bang    That awful sound    Bang Bang    My baby shot me


e|----------------1-----------0--------------------------------1-|
B|-1------1-------2---2-1-----1-----2---1--------------------1---|
G|------1---3-1---3--3----3---3------------3----1---0------1-----|
D|----3-----------3-3---------2---2----------------------3-------|
A|----------------------------3-3----------------------3---------|
E|---------------------------------------------------------------|
   Down
Comments