Nameless Race - Its All Behind Me Chords & Tabs

 

Its All Behind Me Chords & Tabs

Nameless Race Chords & Tabs

Version: 1 Type: Tab 0 ratings
1 star 2 stars 3 stars 4 stars 5 stars
comments

Its All Behind Me Tab

   
					“It’s all behind me”
				         The Nameless Race
				         Joseph McDonough
					Jeremy Spence
					     Co. 2002


The X’s are pauses in between


--------------x-------------- x-------------x--------------x----------------------------------------
--------1----x--------0-----x------1-----x--------0-----x--------1-----1-----------------------
-----2-------x-----0--------x---2--------x----1---------x-----2-----------2--------------------
----------2--x------------0-x----------3-x------------2-x------------2--------2----------------
--0----------x---------------x-------------x--------------x-0-------------------------------------
--------------x--3-----------x-1----------x-0------------x---------------------------------------

------------------------------------------------------------------------------------------------------
--------0------0----------------1------1----------------0------0----------------------------------
-----0------------0----------2------------2----------1------------1-------------------------------
------------0--------0--------------3--------3-------------2---------2----------------------------
------------------------------------------------------------------------------------------------------
--3-----------------------1------------------------0------------------------------------------------

------------------------------------------------------------------------------------------------------
--------1-----1---------------1-----1---------------1-----1--------------0-----0----------------
----2------------2---------2-----------2---------0-----------0--------0-----------0-------------
-----------2--------2------------3--------3------------2--------2-----------0--------0----------
-0----------------------0----------------------3----------------------------------------------------
------------------------------------------------------------------------3----------------------------

------------------------------------------------------------------------------------------------------
--------1-----1---------------1-----1---------------1-----1--------------0-----0----------------
----2------------2---------2-----------2---------0-----------0--------0-----------0-------------
-----------2--------2------------3--------3------------2--------2-----------0--------0----------
-0----------------------0----------------------3----------------------------------------------------
------------------------------------------------------------------------3----------------------------

        My    eyes    are        tired                   and my mind       is     clo---------------
------------------------------------------------------------------------------------------------------
--------1-----1---------------1-----1---------------1-----1--------------0-----0----------------
----2------------2---------2-----------2---------0-----------0--------0-----------0-------------
-----------2--------2------------3--------3------------2--------2-----------0--------0----------
-0----------------------0----------------------3----------------------------------------------------
------------------------------------------------------------------------3----------------------------

---sed  Where this all comes from                only the whole world kno--------ws
------------------------------------------------------------------------------------------------------
--------1-----1---------------1-----1---------------1-----1--------------0-----0----------------
----2------------2---------2-----------2---------0-----------0--------0-----------0-------------
-----------2--------2------------3--------3------------2--------2-----------0--------0----------
-0----------------------0----------------------3----------------------------------------------------
------------------------------------------------------------------------3----------------------------

     My     eyes    are      closed                 and    my   mind   is  afra  - - - - - -
------------------------------------------------------------------------------------------------------
--------1-----1---------------1-----1---------------1-----1--------------0-----0----------------
----2------------2---------2-----------2---------0-----------0--------0-----------0-------------
-----------2--------2------------3--------3------------2--------2-----------0--------0----------
-0----------------------0----------------------3----------------------------------------------------
------------------------------------------------------------------------3----------------------------

---  aid     The    path    for    my life                 turns into   day by    da------------y
------------------------------------------------------------------------------------------------------
--------1-----1---------------1-----1---------------1-----1--------------0-----0----------------
----2------------2---------2-----------2---------0-----------0--------0-----------0-------------
-----------2--------2------------3--------3------------2--------2-----------0--------0----------
-0----------------------0----------------------3----------------------------------------------------
------------------------------------------------------------------------3----------------------------

            Am                       F                          C                       G
----0-0-0-0-0-0------1-1-1-1-1-1-----0-0-0-0-0-0-----3-3-3-3-3-3---------------------
----1-1-1-1-1-1------1-1-1-1-1-1-----1-1-1-1-1-1-----0-0-0-0-0-0----------------------
----2-2-2-2-2-2------2-2-2-2-2-2-----0-0-0-0-0-0-----0-0-0-0-0-0-----------------------
----2-2-2-2-2-2------3-3-3-3-3-3-----2-2-2-2-2-2-----0-0-0-0-0-0------------------------
----0-0-0-0-0-0------0-0-0-0-0-0-----3-3-3-3-3-3-----2-2-2-2-2-2-----------------------
----0-0-0-0-0-0------0-0-0-0-0-0-----0-0-0-0-0-0-----3-3-3-3-3-3------------------------

Chorus:
[ Tab from: http://www.guitartabs.cc/tabs/n/nameless_race/its_all_behind_me_tab.html ]
           I  left   my world behing              for a place i did not know
----0-0-0-0-0-0------1-1-1-1-1-1-----0-0-0-0-0-0-----3-3-3-3-3-3---------------------
----1-1-1-1-1-1------1-1-1-1-1-1-----1-1-1-1-1-1-----0-0-0-0-0-0----------------------
----2-2-2-2-2-2------2-2-2-2-2-2-----0-0-0-0-0-0-----0-0-0-0-0-0-----------------------
----2-2-2-2-2-2------3-3-3-3-3-3-----2-2-2-2-2-2-----0-0-0-0-0-0------------------------
----0-0-0-0-0-0------0-0-0-0-0-0-----3-3-3-3-3-3-----2-2-2-2-2-2-----------------------
----0-0-0-0-0-0------0-0-0-0-0-0-----0-0-0-0-0-0-----3-3-3-3-3-3------------------------

  but now that it is done      I can go though life with my face shown
----0-0-0-0-0-0------1-1-1-1-1-1-----0-0-0-0-0-0-----3--3--3--3--3---3-----------------
----1-1-1-1-1-1------1-1-1-1-1-1-----1-1-1-1-1-1-----0--0--0--0--0---0-----------------
----2-2-2-2-2-2------2-2-2-2-2-2-----0-0-0-0-0-0-----0--0--0--0--0---0-----------------
----2-2-2-2-2-2------3-3-3-3-3-3-----2-2-2-2-2-2-----0--0--0--0--0---0-----------------
----0-0-0-0-0-0------0-0-0-0-0-0-----3-3-3-3-3-3-----2--2--2--2--2---2----------------
----0-0-0-0-0-0------0-0-0-0-0-0-----0-0-0-0-0-0-----3--3--3--3--3---3-----------------

ohhhhhhhhhhhh....................................................................................................
----0-0-0-0-0-0------1-1-1-1-1-1-----0-0-0-0-0-0-----3-3-3-3-3-3---------------------
----1-1-1-1-1-1------1-1-1-1-1-1-----1-1-1-1-1-1-----0-0-0-0-0-0----------------------
----2-2-2-2-2-2------2-2-2-2-2-2-----0-0-0-0-0-0-----0-0-0-0-0-0-----------------------
----2-2-2-2-2-2------3-3-3-3-3-3-----2-2-2-2-2-2-----0-0-0-0-0-0------------------------
----0-0-0-0-0-0------0-0-0-0-0-0-----3-3-3-3-3-3-----2-2-2-2-2-2-----------------------
----0-0-0-0-0-0------0-0-0-0-0-0-----0-0-0-0-0-0-----3-3-3-3-3-3------------------------

ohhhhhhhhhhhh....................................................................................................
----0-0-0-0-0-0------1-1-1-1-1-1-----0-0-0-0-0-0-----3-3-3-3-3-3---------------------
----1-1-1-1-1-1------1-1-1-1-1-1-----1-1-1-1-1-1-----0-0-0-0-0-0----------------------
----2-2-2-2-2-2------2-2-2-2-2-2-----0-0-0-0-0-0-----0-0-0-0-0-0-----------------------
----2-2-2-2-2-2------3-3-3-3-3-3-----2-2-2-2-2-2-----0-0-0-0-0-0------------------------
----0-0-0-0-0-0------0-0-0-0-0-0-----3-3-3-3-3-3-----2-2-2-2-2-2-----------------------
----0-0-0-0-0-0------0-0-0-0-0-0-----0-0-0-0-0-0-----3-3-3-3-3-3------------------------



Main again

It seems that I had left with nothing to gain
but leaving was the only thing that kept me sane
living in a place where no one seemed to care
doesnt even matter now as long as Im not there


Chorus


Brigde

-7-7-7-7-7-7-7-7------5-5-5-5-5-5-5-5-------7-7-7-7-7-7-7-7------5------3------1-------
-8-8-8-8-8-8-8-8------5-5-5-5-5-5-5-5-------8-8-8-8-8-8-8-8------5------3------1-------
-9-9-9-9-9-9-9-9------6-6-6-6-6-6-6-6-------9-9-9-9-9-9-9-9------6------4------2-------
-9-9-9-9-9-9-9-9------7-7-7-7-7-7-7-7-------9-9-9-9-9-9-9-9------7------5------3-------
-7-7-7-7-7-7-7-7------7-7-7-7-7-7-7-7-------7-7-7-7-7-7-7-7------7------5------3-------
-7-7-7-7-7-7-7-7------5-5-5-5-5-5-5-5-------7-7-7-7-7-7-7-7------5------3------1-------


Ending

---------------------------------------------------------------------------------------------------
--------1-----1---------------0------0----------------1------1----------------0------0------
-----2-----------2---------0------------0----------2------------2----------1------------1---
------------2--------2-------------0--------0--------------3--------3-------------2---------2-
0------------------------------------------------------------------------------------------------
-------------------------3-----------------------1------------------------0---------------------

-------------------------------------------------------------------------------------------0-----
--------1-----1---------------0------0----------------1------1----------------0-------------
-----2-----------2---------0------------0----------2------------2----------1----------------
------------2--------2-------------0--------0--------------3--------3-------------2---------
0-----------------------------------------------------------------------------------------------
-------------------------3-----------------------1------------------------0--------------------

        My    eyes    are        tired                   and my mind       is     clo---------------
------------------------------------------------------------------------------------------------------
--------1-----1---------------1-----1---------------1-----1--------------0-----0----------------
----2------------2---------2-----------2---------0-----------0--------0-----------0-------------
-----------2--------2------------3--------3------------2--------2-----------0--------0----------
-0----------------------0----------------------3----------------------------------------------------
------------------------------------------------------------------------3----------------------------

---sed  
 ------------------------------------------------------------------------------------------------------
--------1-----1---------------1-----1---------------1-----1--------------0-----0----------------
----2------------2---------2-----------2---------0-----------0--------0-----------0-------------
-----------2--------2------------3--------3------------2--------2-----------0--------0----------
-0----------------------0----------------------3----------------------------------------------------
------------------------------------------------------------------------3----------------------------   
    Where this all comes from                only the whole world kno.......................
------------------------------------------------------------------------------------------------------
--------1-----1---------------1-----1---------------1-----1--------------0-----0----------------
----2------------2---------2-----------2---------0-----------0--------0-----------0-------------
-----------2--------2------------3--------3------------2--------2-----------0--------0----------
-0----------------------0----------------------3----------------------------------------------------
------------------------------------------------------------------------3----------------------------
ohhhhhhhh................................................................................................................
---------------------------------------------------------------------------------------------------0--
--------1-----1---------------1-----1---------------1-----1--------------0-----0-------------1--
----2------------2---------2-----------2---------0-----------0--------0-----------0----------2--
-----------2--------2------------3--------3------------2--------2-----------0--------0-------2--
-0----------------------0----------------------3-------------------------------------------------0--
-----------------------------------------------------------------------3---------------------------0--
Comments