Nameless Race - Duplicated Mind Chords & Tabs

 

Duplicated Mind Chords & Tabs

Nameless Race Chords & Tabs

Version: 2 Type: Tab 0 ratings
1 star 2 stars 3 stars 4 stars 5 stars
comments

Duplicated Mind Tab

   
                             Duplicated Mind

                   by Joseph McDonough and Jeremy Spence

B--------------------------F#
Looking out at the summer rain
F# ---------------------------A
Im just sittin here dreamin again
A ------------------------E
about the times I used to know

Things have changed and I knew they would
things will change and I think they should
cause every person needs time to grow

B F# A E

Wondering what goes through other peoples heads
but I need to focus on my work instead
Gotta take a step back to forge ahead

Dont stand still when faced with fear
dont stand still cause you cant hear
Dont stand still and watch life pass you by

Chorus
B-------A-------E
Look into your mind
B---------------A----------------E
You might be surprised what you find
B---------A------E
Something deep inside
B--------A-------E
the duplicated mind

(Back to main part)

Through my eyes we are all the same
if we weren't I wouldnt play the game
our reckless hearts are hard to tame
[ Tab from: http://www.guitartabs.cc/tabs/n/nameless_race/duplicated_mind_tab_ver_2.html ]
for my true love she was not my own
In her mind I was just a drone
She's already gone, I never knew her name

Chorus

Bridge section
pick fast
-----------------------|
--4----------4---------|
-----4---------4-------|
4--------4-------------|
-----------------------|
-----------------------|
lo---ook deeeep
-----------------------|
--2----------2---------|
-----2----------2------|
2--------2-------------|
-----------------------|
-----------------------|
whilst you sleep
-------------------------|
-------------------------|
----1-------1-------1----|
------2-------2--------2-|
-------------------------|
-0-------0-------0-------|
All you need to find
--------------------------|
--------------------------|
--0---------0-------0-----|
-----0---------0-------0--|
--------------------------|
3-------3---------3-------|
is in your mind

B F# A E

(main)
Dont stand still when faced with fear
dont stand still cause you cant hear
dont stand still and watch life pass you by

Things have changed and I knew they would
things will change and I think they should
cause every person needs time to grow

Chorus
Comments