Nameless - Down Under Chords & Tabs

 

Down Under Chords & Tabs

Nameless Chords & Tabs

Version: 1 Type: Tab 0 ratings
1 star 2 stars 3 stars 4 stars 5 stars
comments

Down Under Tab

Nameless
down under



This is my first tab but im pretty sure this is right.  If you dont 
have this song GETT IT!! it is soooooooooooooooooo funny!!! w/ great
guiatr! They are a local band out of Snellville,GA. So check them out! 
They dont have a cd out yet but will. The band members are - 

Matt L. on guitar & volcals

Jake O. on guitar background voclas



Intro - clean

E----9---------------------------------------
B---10--------9--------5--------7------------
G---11-x 8---10--------6--------8------------
D---11-------11-x 8----7-x 8----9-x 8---x 3---
A----9-------11--------7--------9------------
E-------------9--------5--------7-------------


1st distortion part 

e---1/---9-------------|-----|--------
B---2/--10---9---5---7-|-7-7-|--------
G---3/--11--10---6---8-|-8-8-|---------
D---3/--11--11---7---9-|-9-9-|---x 2-----
A---1/---9--11---7---9-|-9-9-|-----------
E------------9---5---7-|-7-7-|---------
 *    *   *   *   * 

| | = hit twice really hard then repeat riff  x 2 
[ Tab from: http://www.guitartabs.cc/tabs/n/nameless/down_under_tab.html ]
* = play many times really fast                




2nd distortion

E---------------------------------------------------------------
B--------------------------------------------------------------
G---------------------------------------------------------------
D-same as intro with various intevals of palm mutting and pauses-
A----------------------------------------------------------------
E----------------------------------------------------------------



SOLO!!!!!!

E----------------------------------------------
B---3/12-12/15\10-10-8-10----------------------
G---------------------------10/15\10------------
D--------------------------------------10-8-10--
A----------------------------------------------
E----------------------------------------------



Since Nameless doesnt have a record your going to have to
get it on napster 

artist = Nameless 

song   = Down Under




***********THESE GUYS ARE REAL IDOITS MIX BLOODHOUND GANG 
AND BLINK 182 AND YOU GET THESE GUYS*******************


-PEACE YALL	


Comments