Naked Raygun - Potential Rapist Chords & Tabs

 

Potential Rapist Chords & Tabs

Naked Raygun Chords & Tabs

Version: 1 Type: Bass Tab 0 ratings
1 star 2 stars 3 stars 4 stars 5 stars
comments

Potential Rapist Bass Tab

Potential Rapist - Naked Raygun
By: sykomantis@hotmail.com

Intro/Verse

G|-----------------------------------------------------------------*----------
D|-----------------3--33-3-----------------------------------------*----------
A|---------3--33-3---------7--77-7---------7--77-7---------7-7-7-7-*-7-5-3----
E|-5--55-5-------------------------5--55-5---------5--55-5---------*-------5--


Chorus:
G|---------------------------------------------------------------------------|
D|---------------------------------------------------------------------------|
A|----------------55555555555555----------------33333333333333---------------|
E|-77777777777777----------------77777777777777------------------------------|
[ Tab from: http://www.guitartabs.cc/tabs/n/naked_raygun/potential_rapist_btab.html ]
Ending:

G|---------------------------------------------------------------------------|
D|---------------------------------------------------------------------------|
A|------------3--33--333------------3--33--333------------3--33--333---------|
E|-5--55--555------------5--55--555------------5--55--555--------------------|

G|---------------------------------------------------------------------------|
D|---------------------------------------------------------------------------|
A|-------3------------------3------------------3-----------------------------|
E|-3-5-7---5-5555555--3-5-7---5-5555555--3-5-7---5---------------------------|THERE YOU HAVE IT MOFO'S.....LISTEN TO THE SONG FOR THE ORDER


UP THE FUCKEN PUNX!!!
Comments