Naked Aggression - Right Now Chords & Tabs

 

Right Now Chords & Tabs

Naked Aggression Chords & Tabs

Version: 1 Type: Tab 0 ratings
1 star 2 stars 3 stars 4 stars 5 stars
comments

Right Now Tab

-----------------------------------------------------------------------------
               RIGHT NOW - Naked Aggression
-----------------------------------------------------------------------------

By: Ki Brown(Skanklitis@aol.com)   

Intro
e|--------------------------------------------------------------------|
B|--------------------------------------------------------------------|
G|--9--5-----7----9--5-----7----9--5-----7----9--5-----7--------------|
D|--9--5--7--7----9--5--7--7----9--5--7--7----9--5--7--7--------------|
A|--7--3--7--5----7--3--7--5----7--3--7--5----7--3--7--5--------------|
E|--------5-------------5-------------5-------------5-----------------|

Verse
e|--------------------------------------------------------------------|
B|--------------------------------------------------------------------|
G|--9--5-----7---9--5-----7---9--5-----7---9--5-----7-----------------|
D|--9--5--7--7---9--5--7--7---9--5--7--7---9--5--7--7-----------------|
A|--7--3--7--5---7--3--7--5---7--3--7--5---7--3--7--5-----------------|
E|--------5------------5------------5------------5--------------------|
[ Tab from: http://www.guitartabs.cc/tabs/n/naked_aggression/right_now_tab.html ]
Verse Break
e|--------------------------------------------------------------------|
B|--------------------------------------------------------------------|
G|--9-----7---9-----7---9-----7---------------------------------------|
D|--9--7--7---9--7--7---9--7--7---------------------------------------|
A|--7--7--5---7--7--5---7--7--5---------------------------------------|
E|-----5---------5---------5------------------------------------------|

Chorus
e|--------------------------------------------------------------------|
B|--------------------------------------------------------------------|
G|--9--5---------7~--9--5---------7~--9--5---------7~--9--5---------7~|
D|--9--5----7~--7----9--5----7~--7----9--5----7~--7----9--5----7~--7--|
A|--7--3---7---5-----7--3---7---5-----7--3---7---5-----7--3---7---5---|
E|--------5----------------5----------------5----------------5--------|

Bridge(Palm Muted)
e|--------------------------------------------------------------------|
B|--------------------------------------------------------------------|
G|--9--5-----7---9--5-----7---9--5-----7---9--5-----7-----------------|
D|--9--5--7--7---9--5--7--7---9--5--7--7---9--5--7--7-----------------|
A|--7--3--7--5---7--3--7--5---7--3--7--5---7--3--7--5-----------------|
E|--------5------------5------------5------------5--------------------|

Mini Lead
e|-------------------|
B|-------------------|
G|-------------------|
D|-----------------3-|
A|--------5--3-5-6---|
E|--5-6-8------------|

=======================================================================
Added to UG by Mikhailo
Comments