Nada Surf - Your Legs Grow Chords & Tabs

 

Your Legs Grow Chords & Tabs

Nada Surf Chords & Tabs

Version: 1 Type: Chords 0 ratings
1 star 2 stars 3 stars 4 stars 5 stars
comments

Your Legs Grow Chords

   
"Your Legs Grow"
By Nada Surf
Tabbed by: Brandon Luckas (copperforever@aol.com)
Standard tuning

  Am     G      C  C/Am
|-5------0------0---0-|
|-5------1------1---1-|
|-5------0------0---2-|
|-7------0------2---2-|
|-7------2------3---3-|
|-5------3------------|

Am          G
If you were here baby 
         C  C/Am      C
We would increase the dose 

  Am    G/B     C C/Am  F/Dm F/D7 F/Dm
|-5------0------0---0---1-----3----1-|
|-5------1------1---1---3-----3----3-|
|-5------0------0---2---2-----2----2-|
|-7------0------2---2---3-----3----3-|
|-7------2------3---3----------------|
|-5------3---------------------------|

Am           G/B
There was no fear in my room 
     C  C/Am F/Dm F/D7 F/Dm
When we got  close 
[ Tab from: http://www.guitartabs.cc/tabs/n/nada_surf/your_legs_grow_crd.html ]
 C7   C7(II) Am(I)* C/F
|-----10-|   |-9-------|
|-----X--|   |-5-----1-|
|-----X--|   |-5-----2-|
|-8---8--|   |-7-----3-|
|-7---7--|   |-0-----3-|
|-8---8--|   |---------|
             *I am really not too sure about this chord.

C7                C7(II)
Call me anytime 
Am(II)       C/F
You've got a ghost 
 Am    G(?) C/F  C
|-5----7----1----0-|
|-5----8----1----1-|
|-5----0----2----0-|
|-7---------3----2-|
|-7---------3----3-|
|-5----------------|
Am                      G(?)
You are the only person in the world 
  C/F            C
I feel that way about 
         Am              G(?)
When you move off to the side 

      C/F        C
I get swept back out
           Am                G(?)
Where it's cold but not that deep 
           C/F  C
Cause your legs grow 
Am                G(?)
Cold but not that deep 
           C/F      C
Cause your legs grow 


C (just palm mute the 3 fret of the A string)
There is a light that rouses up 
from the bottom of the lake 
and its beam hast me hard 
Now I'm wide awake. 

Where it is cold but not that deep 
Cause your legs grow
Cold but not that deep 
Cause your legs grow
Cold but not that deep 
Cause your legs grow

If you were here baby 
We would've increased the dose 
There was no fear in my room 
When we got close

End with X32013.
Comments