Nada Surf - What Is Your Secret Chords & Tabs

 

What Is Your Secret Chords & Tabs

Nada Surf Chords & Tabs

Version: 1 Type: Tab

What Is Your Secret Tab

   
What is Your Secret by Nada Surf
Submitted by Tom Pennetta

Tuning: Standard

Chords used:

Bm  A   Em   Dm
7   5   7    5
7   5   7    5
7   5   9    7
9   7   9    7
9   7   7    5
7   5   x    x

Intro/Verse

Bm, A   (Play Em at end of verse)

Chorus

Em, Dm

Bridge

Em, Dm, Em, A


Solo
[ Tab from: http://www.guitartabs.cc/tabs/n/nada_surf/what_is_your_secret_tab.html ]
|--------------------------------------------------------|
|--------------------------------------------------------|
|-11----11----11~---11----11-12-11-------11----11----11~-|
|----12----12----------12----------12~------12----12-----|
|--------------------------------------------------------|
|--------------------------------------------------------|

|----------------------------|
|----------------------------|
|-11b^12-11-------14-12-11~--|
|-----------12~---12-12-9-~--|
|----------------------------|
|----------------------------|

Solo2

|------------------------------|
|------------------------------|
|-----9-9/11~---11-9----11-----|
|-12~----------------12----12~-|
|------------------------------|
|------------------------------|


Piano Part

|--------------|
|--------------|
|-11-12-11-----|
|----------12~-|
|--------------|
|--------------|


This is my first tab so critique and comments are welcomed. I'm pretty sure it is fairly accurate.

Email: tpennetta@gmail.com