Nada Surf - Sleep Chords & Tabs

 

Sleep Chords & Tabs

Nada Surf Chords & Tabs

Version: 1 Type: Tab 0 ratings
1 star 2 stars 3 stars 4 stars 5 stars
comments

Sleep Tab

   
"Sleep" - Nada Surf
ALbum "High/Low"
Standard Tuning EADGBe


Verse and Prechorus:



E|--------------------|--------------------|--------------------|
B|--------------------|--------------------|--------------------|
G|--------------------|--------------------|7777777777777777----|
D|--------------------|--------------------|8888888888888888----|
A|-8/1010101010101010-|-8/1010101010101010-|6666666666666666----|
E|-6/8-8-8-8-8-8-8-8--|-6/8-8-8-8-8-8-8-8--|--------------------| Repeat until chorus


Step in my shoes, wait 'til you see the big flash now
Glued to the sheets, sleep with the sheep all month long
Easy to please, hard to believe it's a tease
Stuck in a rut, we don't give a fuck if we're us
Lie in a haze, hope it's a phase and not hate
You know that I know, that you know that I know, that you know

I want you to kiss me
I want you to kiss me
I want you to kiss me
I want you to kiss me

I want you to kiss me
I want you to kiss me
I want you to kiss me
I want you to kiss me

Chorus:

E|---------------------|
B|---------------------|
G|3/55--------------555|
D|3/55-3/55-5/66666-555|
A|1/33-3/55-5/66666-333| Repeat
E|-----1/33-3/44444----|



I try to open my eyes to the days going by
But the trash in everything it keeps me
Hypnotized, I'm hypnotized, I'm hypnotized
I got the poison in me but it's amplified, amplified, amplified

Verse and Prechorus:

[ Tab from: http://www.guitartabs.cc/tabs/n/nada_surf/sleep_tab.html ]
E|--------------------|--------------------|--------------------|
B|--------------------|--------------------|--------------------|
G|--------------------|--------------------|7777777777777777----|
D|--------------------|--------------------|8888888888888888----|
A|-8/1010101010101010-|-8/1010101010101010-|6666666666666666----|
E|-6/8-8-8-8-8-8-8-8--|-6/8-8-8-8-8-8-8-8--|--------------------| Repeat until chorus


Step in my shoes, wait 'til you see the big flash now
Glued to the sheets, sleep with the sheep all month long
Easy to please, hard to believe it's a tease
Stuck in a rut, we don't give a fuck if we're us
Lie in a haze, hope it's a phase and not hate
You know that I know, that you know that I know, that you know

I want you to kiss me
I want you to kiss me
I want you to kiss me
I want you to kiss me

I want you to kiss me
I want you to kiss me
I want you to kiss me
I want you to kiss me

Chorus:

E|---------------------|
B|---------------------|
G|3/55--------------555|
D|3/55-3/55-5/66666-555|
A|1/33-3/55-5/66666-333| Repeat
E|-----1/33-3/44444----|

Stop short on (x355xx) on final "NO-"

I try to open my eyes to the days going by
But the trash in everything it keeps me
Hypnotized, I'm hypnotized, I'm hypnotized
                              
                              C\Slide down
NO! TV... NO! TV... NO! TV... NO-

Another awesome song from a very underrated band.

Tabbed by Justin Starr
Comments