Nada Surf - Popular Chords & Tabs

 

Popular Chords & Tabs

Nada Surf Chords & Tabs

Version: 2 Type: Tab 0 ratings
1 star 2 stars 3 stars 4 stars 5 stars
comments

Popular Tab

   
"Popular" by Nada Surf 
Tabbed by Alec LaLonde (www.angelfire.com/ny4/cela)

This is a pretty cool song, and it's easy, so knock yourself out. Just don't ask me for the rhythms, cuz i'm too lazy. 
This is correct too.  See the other tabs for lyrics.

Intro riff
e-----------------------------
B-----0-----0-------0-----0---
G-----------------------------
D-----------------------------  3x
A-3-3---3-3---3-2-2---------0-
E---------------------0-0-----

then once:
e-----------------------------------------------
B-----0-----0-----------------------------------
G---------------0-2-0---0-2-0-----4-------4-----
D-------------------------------4---4---4---4---
A-3-3---3-3---3-------3-------2-------2-------2-
E-----------------------------------------------
[ Tab from: http://www.guitartabs.cc/tabs/n/nada_surf/popular_tab_ver_2.html ]
intro riff 3x, 
then modification:
e---------------------------------
B---------------------------------
G---0-2-0---0-2-0-----4-------4---
D-------------------4---4---4---4-
A-3-------3-------2-------2-------
E---------------------------------

intro riff 3x, then modification

chorus:
e--------(guitar 2)-7/5-5--5/3-3-
B--------------------------------
G--------------------------------
D-7--5--7--5--7--5--7/3--5/10----
A-7--5--7--5--7--5--7/3--5/10----
E-5--3--5--3--5--3--5/1--3/8-----

back to intro riff 3x, then modification
chorus again
guitar 1 goes back to intro riff 3x
then a minor modification:

e---------------------
B---------------------
G---0-2-2-0-----4-4-2-
D-------------4-------
A-3---------2---------
E---------------------

then intro riff 3x w/ bends on high B string
while guitar 2 plays backing chords

e----------
B----------
G-5--4-----																															G-14--12-
D-5--4--2--until right before the chorus: D-14--12-
A-3--2--2--					                          A-12--10-
E-------0--																															E--------

and the chorus twice
end on
D-7-
A-7-
E-5-
Comments